ISO-10303-21;
HEADER;
FILE_DESCRIPTION(('STEP AP203'),'1');
FILE_NAME('BASE00E0387.stp','2023-10-02T10:16:19',(' '),(' '),'Spatial InterOp 3D',' ',' ');
FILE_SCHEMA(('CONFIG_CONTROL_DESIGN'));
ENDSEC;
DATA;
#1=DESIGN_CONTEXT('',#59,'design');
#2=APPLICATION_PROTOCOL_DEFINITION('INTERNATIONAL STANDARD','config_control_design',1994,#59);
#3=PRODUCT_CATEGORY_RELATIONSHIP('NONE','NONE',#60,#61);
#4=DATE_AND_TIME(#62,#63);
#5=DATE_TIME_ROLE('creation_date');
#6=DATE_TIME_ROLE('classification_date');
#7=PERSON_AND_ORGANIZATION_ROLE('creator');
#8=PERSON_AND_ORGANIZATION_ROLE('design_supplier');
#9=PERSON_AND_ORGANIZATION_ROLE('classification_officer');
#10=PERSON_AND_ORGANIZATION_ROLE('design_owner');
#11=APPROVAL_PERSON_ORGANIZATION(#64,#65,#66);
#12=APPROVAL_DATE_TIME(#4,#65);
#13=CC_DESIGN_APPROVAL(#65,(#67,#68,#69));
#14=CC_DESIGN_DATE_AND_TIME_ASSIGNMENT(#4,#5,(#69));
#15=CC_DESIGN_DATE_AND_TIME_ASSIGNMENT(#4,#6,(#67));
#16=CC_DESIGN_PERSON_AND_ORGANIZATION_ASSIGNMENT(#64,#10,(#70));
#17=CC_DESIGN_PERSON_AND_ORGANIZATION_ASSIGNMENT(#64,#7,(#69));
#18=CC_DESIGN_PERSON_AND_ORGANIZATION_ASSIGNMENT(#64,#7,(#68));
#19=CC_DESIGN_PERSON_AND_ORGANIZATION_ASSIGNMENT(#64,#8,(#68));
#20=CC_DESIGN_SECURITY_CLASSIFICATION(#67,(#68));
#21=CC_DESIGN_PERSON_AND_ORGANIZATION_ASSIGNMENT(#64,#9,(#67));
#22=SHAPE_DEFINITION_REPRESENTATION(#71,#72);
#23= (GEOMETRIC_REPRESENTATION_CONTEXT(3)GLOBAL_UNCERTAINTY_ASSIGNED_CONTEXT((#75))GLOBAL_UNIT_ASSIGNED_CONTEXT((#77,#78,#79))REPRESENTATION_CONTEXT('NONE','WORKSPACE'));
#24=PROPERTY_DEFINITION_REPRESENTATION(#81,#82);
#25=GENERAL_PROPERTY_ASSOCIATION('','',#83,#81);
#26=PROPERTY_DEFINITION_REPRESENTATION(#84,#85);
#27=GENERAL_PROPERTY_ASSOCIATION('','',#86,#84);
#28=PROPERTY_DEFINITION_REPRESENTATION(#87,#88);
#29=GENERAL_PROPERTY_ASSOCIATION('','',#89,#87);
#30=PROPERTY_DEFINITION_REPRESENTATION(#90,#91);
#31=GENERAL_PROPERTY_ASSOCIATION('','',#92,#90);
#32=PROPERTY_DEFINITION_REPRESENTATION(#93,#94);
#33=GENERAL_PROPERTY_ASSOCIATION('','',#95,#93);
#34=PROPERTY_DEFINITION_REPRESENTATION(#96,#97);
#35=GENERAL_PROPERTY_ASSOCIATION('','',#98,#96);
#36=PROPERTY_DEFINITION_REPRESENTATION(#99,#100);
#37=GENERAL_PROPERTY_ASSOCIATION('','',#101,#99);
#38=PROPERTY_DEFINITION_REPRESENTATION(#102,#103);
#39=GENERAL_PROPERTY_ASSOCIATION('','',#104,#102);
#40=PROPERTY_DEFINITION_REPRESENTATION(#105,#106);
#41=GENERAL_PROPERTY_ASSOCIATION('','',#107,#105);
#42=PROPERTY_DEFINITION_REPRESENTATION(#108,#109);
#43=GENERAL_PROPERTY_ASSOCIATION('','',#110,#108);
#44=PROPERTY_DEFINITION_REPRESENTATION(#111,#112);
#45=GENERAL_PROPERTY_ASSOCIATION('','',#113,#111);
#46=PROPERTY_DEFINITION_REPRESENTATION(#114,#115);
#47=GENERAL_PROPERTY_ASSOCIATION('','',#116,#114);
#48=PROPERTY_DEFINITION_REPRESENTATION(#117,#118);
#49=GENERAL_PROPERTY_ASSOCIATION('','',#119,#117);
#50=PROPERTY_DEFINITION_REPRESENTATION(#120,#121);
#51=GENERAL_PROPERTY_ASSOCIATION('','',#122,#120);
#52=PROPERTY_DEFINITION_REPRESENTATION(#123,#124);
#53=GENERAL_PROPERTY_ASSOCIATION('','',#125,#123);
#54=PROPERTY_DEFINITION_REPRESENTATION(#126,#127);
#55=GENERAL_PROPERTY_ASSOCIATION('','',#128,#126);
#59=APPLICATION_CONTEXT('CONFIGURATION CONTROLLED 3D DESIGNS OF MECHANICAL PARTS AND ASSEMBLIES');
#60=PRODUCT_CATEGORY('part','NONE');
#61=PRODUCT_RELATED_PRODUCT_CATEGORY('detail',' ',(#70));
#62=CALENDAR_DATE(2023,2,9);
#63=LOCAL_TIME(12,16,19.0,#129);
#64=PERSON_AND_ORGANIZATION(#130,#131);
#65=APPROVAL(#132,'SOLID MODEL');
#66=APPROVAL_ROLE('APPROVED');
#67=SECURITY_CLASSIFICATION('','',#133);
#68=PRODUCT_DEFINITION_FORMATION_WITH_SPECIFIED_SOURCE('A','NONE',#70,.NOT_KNOWN.);
#69=PRODUCT_DEFINITION('','NONE',#68,#1);
#70=PRODUCT('Profil\X2\00E9\X0\ M 60x6 E','%#@![CATALOGUE - PREFIXE=BASE][CATALOGUE - GAMME=00][CATALOGUE - LETTRE=E][CATALOGUE - ID=0386]','Profil\X2\00E9\X0\ M 60x6 E',(#134));
#71=PRODUCT_DEFINITION_SHAPE('NONE','NONE',#69);
#72=ADVANCED_BREP_SHAPE_REPRESENTATION('1',(#135,#136),#23);
#75=UNCERTAINTY_MEASURE_WITH_UNIT(LENGTH_MEASURE(0.001),#77,'','');
#77= (CONVERSION_BASED_UNIT('MILLIMETRE',#139)LENGTH_UNIT()NAMED_UNIT(#142));
#78= (NAMED_UNIT(#144)PLANE_ANGLE_UNIT()SI_UNIT($,.RADIAN.));
#79= (NAMED_UNIT(#144)SOLID_ANGLE_UNIT()SI_UNIT($,.STERADIAN.));
#81=PROPERTY_DEFINITION('PdmObjectId','',#69);
#82=REPRESENTATION('',(#150),#23);
#83=GENERAL_PROPERTY('','19_a196914b-2902-4653-bb58-d967e9033e40&5_504_0_12','');
#84=PROPERTY_DEFINITION('CATALOGUE - ID','',#69);
#85=REPRESENTATION('',(#151),#23);
#86=GENERAL_PROPERTY('','0386','');
#87=PROPERTY_DEFINITION('Type de production hellomoov','',#69);
#88=REPRESENTATION('',(#152),#23);
#89=GENERAL_PROPERTY('','d\X2\00E9\X0\bit interne avec/sans usinage interne','');
#90=PROPERTY_DEFINITION('CATALOGUE - LETTRE','',#69);
#91=REPRESENTATION('',(#153),#23);
#92=GENERAL_PROPERTY('','E','');
#93=PROPERTY_DEFINITION('CATALOGUE - PREFIXE','',#69);
#94=REPRESENTATION('',(#154),#23);
#95=GENERAL_PROPERTY('','BASE','');
#96=PROPERTY_DEFINITION('CATALOGUE - GAMME','',#69);
#97=REPRESENTATION('',(#155),#23);
#98=GENERAL_PROPERTY('','00','');
#99=PROPERTY_DEFINITION('DESIGNATION_ENG','',#69);
#100=REPRESENTATION('',(#156),#23);
#101=GENERAL_PROPERTY('','-','');
#102=PROPERTY_DEFINITION('CODE_TRANSEPT','',#69);
#103=REPRESENTATION('',(#157),#23);
#104=GENERAL_PROPERTY('',' ','');
#105=PROPERTY_DEFINITION('GammeProfil','',#69);
#106=REPRESENTATION('',(#158),#23);
#107=GENERAL_PROPERTY('','h840','');
#108=PROPERTY_DEFINITION('LigneProfil','',#69);
#109=REPRESENTATION('',(#159),#23);
#110=GENERAL_PROPERTY('','6-30','');
#111=PROPERTY_DEFINITION('D\X2\00E9\X0\signation du mat\X2\00E9\X0\riau','',#69);
#112=REPRESENTATION('',(#160),#23);
#113=GENERAL_PROPERTY('','Aluminium EN AW 6063 T66','');
#114=PROPERTY_DEFINITION('Nom du mat\X2\00E9\X0\riau','',#69);
#115=REPRESENTATION('',(#161),#23);
#116=GENERAL_PROPERTY('','Aluminium EN AW 6063 T66','');
#117=PROPERTY_DEFINITION('Manufacturer','',#69);
#118=REPRESENTATION('',(#162),#23);
#119=GENERAL_PROPERTY('','HELLOMOOV','');
#120=PROPERTY_DEFINITION('CreationDate','',#69);
#121=REPRESENTATION('',(#163),#23);
#122=GENERAL_PROPERTY('','02/10/2023 10:13:53','');
#123=PROPERTY_DEFINITION('Minor Revision','',#69);
#124=REPRESENTATION('',(#164),#23);
#125=GENERAL_PROPERTY('','0','');
#126=PROPERTY_DEFINITION('Comment','',#69);
#127=REPRESENTATION('',(#165),#23);
#128=GENERAL_PROPERTY('','D\X2\00E9\X0\riv\X2\00E9\X0\','');
#129=COORDINATED_UNIVERSAL_TIME_OFFSET(1,0,.AHEAD.);
#130=PERSON('','UNSPECIFIED',$,$,$,$);
#131=ORGANIZATION('UNSPECIFIED','UNSPECIFIED','UNSPECIFIED');
#132=APPROVAL_STATUS('approved');
#133=SECURITY_CLASSIFICATION_LEVEL('unclassified');
#134=MECHANICAL_CONTEXT('',#59,'mechanical');
#135=MANIFOLD_SOLID_BREP('1',#166);
#136=AXIS2_PLACEMENT_3D('',#167,#168,#169);
#139=LENGTH_MEASURE_WITH_UNIT(LENGTH_MEASURE(1.0),#170);
#142=DIMENSIONAL_EXPONENTS(1.0,0.0,0.0,0.0,0.0,0.0,0.0);
#144=DIMENSIONAL_EXPONENTS(0.0,0.0,0.0,0.0,0.0,0.0,0.0);
#150=DESCRIPTIVE_REPRESENTATION_ITEM('','19_a196914b-2902-4653-bb58-d967e9033e40&5_504_0_12');
#151=DESCRIPTIVE_REPRESENTATION_ITEM('','0386');
#152=DESCRIPTIVE_REPRESENTATION_ITEM('','d\X2\00E9\X0\bit interne avec/sans usinage interne');
#153=DESCRIPTIVE_REPRESENTATION_ITEM('','E');
#154=DESCRIPTIVE_REPRESENTATION_ITEM('','BASE');
#155=DESCRIPTIVE_REPRESENTATION_ITEM('','00');
#156=DESCRIPTIVE_REPRESENTATION_ITEM('','-');
#157=DESCRIPTIVE_REPRESENTATION_ITEM('',' ');
#158=DESCRIPTIVE_REPRESENTATION_ITEM('','h840');
#159=DESCRIPTIVE_REPRESENTATION_ITEM('','6-30');
#160=DESCRIPTIVE_REPRESENTATION_ITEM('','Aluminium EN AW 6063 T66');
#161=DESCRIPTIVE_REPRESENTATION_ITEM('','Aluminium EN AW 6063 T66');
#162=DESCRIPTIVE_REPRESENTATION_ITEM('','HELLOMOOV');
#163=DESCRIPTIVE_REPRESENTATION_ITEM('','02/10/2023 10:13:53');
#164=DESCRIPTIVE_REPRESENTATION_ITEM('','0');
#165=DESCRIPTIVE_REPRESENTATION_ITEM('','D\X2\00E9\X0\riv\X2\00E9\X0\');
#166=CLOSED_SHELL('',(#171,#172,#173,#174,#175,#176,#177,#178));
#167=CARTESIAN_POINT('',(0.0,0.0,0.0));
#168=DIRECTION('',(0.0,0.0,1.0));
#169=DIRECTION('',(1.0,0.0,0.0));
#170= (NAMED_UNIT(#142)LENGTH_UNIT()SI_UNIT(.MILLI.,.METRE.));
#171=ADVANCED_FACE('',(#180),#181,.T.);
#172=ADVANCED_FACE('',(#182),#183,.T.);
#173=ADVANCED_FACE('',(#184),#185,.T.);
#174=ADVANCED_FACE('',(#186),#187,.T.);
#175=ADVANCED_FACE('',(#188),#189,.T.);
#176=ADVANCED_FACE('',(#190),#191,.T.);
#177=ADVANCED_FACE('',(#192),#193,.T.);
#178=ADVANCED_FACE('',(#194),#195,.T.);
#180=FACE_OUTER_BOUND('',#196,.T.);
#181=CYLINDRICAL_SURFACE('',#197,3.0);
#182=FACE_OUTER_BOUND('',#198,.T.);
#183=CYLINDRICAL_SURFACE('',#199,3.0);
#184=FACE_OUTER_BOUND('',#200,.T.);
#185=PLANE('',#201);
#186=FACE_OUTER_BOUND('',#202,.T.);
#187=PLANE('',#203);
#188=FACE_OUTER_BOUND('',#204,.T.);
#189=PLANE('',#205);
#190=FACE_OUTER_BOUND('',#206,.T.);
#191=PLANE('',#207);
#192=FACE_OUTER_BOUND('',#208,.T.);
#193=PLANE('',#209);
#194=FACE_OUTER_BOUND('',#210,.T.);
#195=PLANE('',#211);
#196=EDGE_LOOP('',(#212,#213,#214,#215));
#197=AXIS2_PLACEMENT_3D('',#216,#217,#218);
#198=EDGE_LOOP('',(#219,#220,#221,#222));
#199=AXIS2_PLACEMENT_3D('',#223,#224,#225);
#200=EDGE_LOOP('',(#226,#227,#228,#229));
#201=AXIS2_PLACEMENT_3D('',#230,#231,#232);
#202=EDGE_LOOP('',(#233,#234,#235,#236,#237,#238));
#203=AXIS2_PLACEMENT_3D('',#239,#240,#241);
#204=EDGE_LOOP('',(#242,#243,#244,#245));
#205=AXIS2_PLACEMENT_3D('',#246,#247,#248);
#206=EDGE_LOOP('',(#249,#250,#251,#252,#253,#254));
#207=AXIS2_PLACEMENT_3D('',#255,#256,#257);
#208=EDGE_LOOP('',(#258,#259,#260,#261));
#209=AXIS2_PLACEMENT_3D('',#262,#263,#264);
#210=EDGE_LOOP('',(#265,#266,#267,#268));
#211=AXIS2_PLACEMENT_3D('',#269,#270,#271);
#212=ORIENTED_EDGE('',*,*,#272,.F.);
#213=ORIENTED_EDGE('',*,*,#273,.T.);
#214=ORIENTED_EDGE('',*,*,#274,.F.);
#215=ORIENTED_EDGE('',*,*,#275,.T.);
#216=CARTESIAN_POINT('',(-50000.0,-1.7347234759768E-15,-27.0));
#217=DIRECTION('',(1.0,0.0,0.0));
#218=DIRECTION('',(0.0,1.0,0.0));
#219=ORIENTED_EDGE('',*,*,#276,.F.);
#220=ORIENTED_EDGE('',*,*,#277,.T.);
#221=ORIENTED_EDGE('',*,*,#278,.F.);
#222=ORIENTED_EDGE('',*,*,#279,.T.);
#223=CARTESIAN_POINT('',(-50000.0,1.7347234759768E-15,27.0));
#224=DIRECTION('',(1.0,0.0,0.0));
#225=DIRECTION('',(0.0,1.0,0.0));
#226=ORIENTED_EDGE('',*,*,#274,.T.);
#227=ORIENTED_EDGE('',*,*,#280,.T.);
#228=ORIENTED_EDGE('',*,*,#276,.T.);
#229=ORIENTED_EDGE('',*,*,#281,.T.);
#230=CARTESIAN_POINT('',(-50000.0,3.0,0.0));
#231=DIRECTION('',(0.0,1.0,-6.12303176911189E-17));
#232=DIRECTION('',(0.0,6.12303176911189E-17,1.0));
#233=ORIENTED_EDGE('',*,*,#282,.F.);
#234=ORIENTED_EDGE('',*,*,#283,.F.);
#235=ORIENTED_EDGE('',*,*,#277,.F.);
#236=ORIENTED_EDGE('',*,*,#280,.F.);
#237=ORIENTED_EDGE('',*,*,#273,.F.);
#238=ORIENTED_EDGE('',*,*,#284,.F.);
#239=CARTESIAN_POINT('',(-50.0,-3.0,0.0));
#240=DIRECTION('',(-1.0,0.0,0.0));
#241=DIRECTION('',(0.0,1.0,0.0));
#242=ORIENTED_EDGE('',*,*,#278,.T.);
#243=ORIENTED_EDGE('',*,*,#283,.T.);
#244=ORIENTED_EDGE('',*,*,#285,.T.);
#245=ORIENTED_EDGE('',*,*,#286,.T.);
#246=CARTESIAN_POINT('',(-50000.0,-4.33680868994202E-16,30.0));
#247=DIRECTION('',(0.0,-1.22460635382238E-16,1.0));
#248=DIRECTION('',(0.0,-1.0,-1.22460635382238E-16));
#249=ORIENTED_EDGE('',*,*,#287,.F.);
#250=ORIENTED_EDGE('',*,*,#288,.F.);
#251=ORIENTED_EDGE('',*,*,#275,.F.);
#252=ORIENTED_EDGE('',*,*,#281,.F.);
#253=ORIENTED_EDGE('',*,*,#279,.F.);
#254=ORIENTED_EDGE('',*,*,#286,.F.);
#255=CARTESIAN_POINT('',(50.0,-3.0,0.0));
#256=DIRECTION('',(1.0,0.0,0.0));
#257=DIRECTION('',(0.0,1.0,0.0));
#258=ORIENTED_EDGE('',*,*,#289,.F.);
#259=ORIENTED_EDGE('',*,*,#284,.T.);
#260=ORIENTED_EDGE('',*,*,#272,.T.);
#261=ORIENTED_EDGE('',*,*,#288,.T.);
#262=CARTESIAN_POINT('',(-50000.0,-4.33680868994202E-16,-30.0));
#263=DIRECTION('',(0.0,0.0,-1.0));
#264=DIRECTION('',(0.0,1.0,0.0));
#265=ORIENTED_EDGE('',*,*,#285,.F.);
#266=ORIENTED_EDGE('',*,*,#282,.T.);
#267=ORIENTED_EDGE('',*,*,#289,.T.);
#268=ORIENTED_EDGE('',*,*,#287,.T.);
#269=CARTESIAN_POINT('',(-50000.0,-3.0,0.0));
#270=DIRECTION('',(0.0,-1.0,-6.12303176911189E-17));
#271=DIRECTION('',(0.0,6.12303176911189E-17,-1.0));
#272=EDGE_CURVE('',#290,#291,#292,.T.);
#273=EDGE_CURVE('',#290,#293,#294,.F.);
#274=EDGE_CURVE('',#295,#293,#296,.F.);
#275=EDGE_CURVE('',#295,#291,#297,.F.);
#276=EDGE_CURVE('',#298,#299,#300,.T.);
#277=EDGE_CURVE('',#298,#301,#302,.F.);
#278=EDGE_CURVE('',#303,#301,#304,.F.);
#279=EDGE_CURVE('',#303,#299,#305,.F.);
#280=EDGE_CURVE('',#293,#298,#306,.T.);
#281=EDGE_CURVE('',#299,#295,#307,.T.);
#282=EDGE_CURVE('',#308,#309,#310,.T.);
#283=EDGE_CURVE('',#301,#308,#311,.T.);
#284=EDGE_CURVE('',#309,#290,#312,.T.);
#285=EDGE_CURVE('',#308,#313,#314,.T.);
#286=EDGE_CURVE('',#313,#303,#315,.T.);
#287=EDGE_CURVE('',#316,#313,#317,.T.);
#288=EDGE_CURVE('',#291,#316,#318,.T.);
#289=EDGE_CURVE('',#309,#316,#319,.T.);
#290=VERTEX_POINT('',#320);
#291=VERTEX_POINT('',#321);
#292=LINE('',#322,#323);
#293=VERTEX_POINT('',#324);
#294=CIRCLE('',#325,3.0);
#295=VERTEX_POINT('',#326);
#296=LINE('',#327,#328);
#297=CIRCLE('',#329,3.0);
#298=VERTEX_POINT('',#330);
#299=VERTEX_POINT('',#331);
#300=LINE('',#332,#333);
#301=VERTEX_POINT('',#334);
#302=CIRCLE('',#335,3.0);
#303=VERTEX_POINT('',#336);
#304=LINE('',#337,#338);
#305=CIRCLE('',#339,3.0);
#306=LINE('',#340,#341);
#307=LINE('',#342,#343);
#308=VERTEX_POINT('',#344);
#309=VERTEX_POINT('',#345);
#310=LINE('',#346,#347);
#311=LINE('',#348,#349);
#312=LINE('',#350,#351);
#313=VERTEX_POINT('',#352);
#314=LINE('',#353,#354);
#315=LINE('',#355,#356);
#316=VERTEX_POINT('',#357);
#317=LINE('',#358,#359);
#318=LINE('',#360,#361);
#319=LINE('',#362,#363);
#320=CARTESIAN_POINT('',(-49.9999999999972,-1.7347234759768E-15,-30.0));
#321=CARTESIAN_POINT('',(49.9999999999972,-1.7347234759768E-15,-30.0));
#322=CARTESIAN_POINT('',(-50000.0,-1.7347234759768E-15,-30.0));
#323=VECTOR('',#364,1.0);
#324=CARTESIAN_POINT('',(-49.9999999999972,3.0,-27.0));
#325=AXIS2_PLACEMENT_3D('',#365,#366,#367);
#326=CARTESIAN_POINT('',(49.9999999999972,3.0,-27.0));
#327=CARTESIAN_POINT('',(-50000.0,3.0,-27.0));
#328=VECTOR('',#368,1.0);
#329=AXIS2_PLACEMENT_3D('',#369,#370,#371);
#330=CARTESIAN_POINT('',(-49.9999999999972,3.0,27.0));
#331=CARTESIAN_POINT('',(49.9999999999972,3.0,27.0));
#332=CARTESIAN_POINT('',(-50000.0,3.0,27.0));
#333=VECTOR('',#372,1.0);
#334=CARTESIAN_POINT('',(-49.9999999999972,1.3010426069826E-15,30.0));
#335=AXIS2_PLACEMENT_3D('',#373,#374,#375);
#336=CARTESIAN_POINT('',(49.9999999999972,1.3010426069826E-15,30.0));
#337=CARTESIAN_POINT('',(-50000.0,1.3010426069826E-15,30.0));
#338=VECTOR('',#376,1.0);
#339=AXIS2_PLACEMENT_3D('',#377,#378,#379);
#340=CARTESIAN_POINT('',(-49.9999999999972,3.0,0.0));
#341=VECTOR('',#380,1.0);
#342=CARTESIAN_POINT('',(49.9999999999972,3.0,0.0));
#343=VECTOR('',#381,1.0);
#344=CARTESIAN_POINT('',(-49.9999999999972,-3.0,30.0));
#345=CARTESIAN_POINT('',(-49.9999999999972,-3.0,-30.0));
#346=CARTESIAN_POINT('',(-49.9999999999972,-3.0,0.0));
#347=VECTOR('',#382,1.0);
#348=CARTESIAN_POINT('',(-49.9999999999972,-4.33680868994202E-16,30.0));
#349=VECTOR('',#383,1.0);
#350=CARTESIAN_POINT('',(-49.9999999999972,-4.33680868994202E-16,-30.0));
#351=VECTOR('',#384,1.0);
#352=CARTESIAN_POINT('',(49.9999999999972,-3.0,30.0));
#353=CARTESIAN_POINT('',(-50000.0,-3.0,30.0));
#354=VECTOR('',#385,1.0);
#355=CARTESIAN_POINT('',(49.9999999999972,-4.33680868994202E-16,30.0));
#356=VECTOR('',#386,1.0);
#357=CARTESIAN_POINT('',(49.9999999999972,-3.0,-30.0));
#358=CARTESIAN_POINT('',(49.9999999999972,-3.0,0.0));
#359=VECTOR('',#387,1.0);
#360=CARTESIAN_POINT('',(49.9999999999972,-4.33680868994202E-16,-30.0));
#361=VECTOR('',#388,1.0);
#362=CARTESIAN_POINT('',(-50000.0,-3.0,-30.0));
#363=VECTOR('',#389,1.0);
#364=DIRECTION('',(1.0,0.0,0.0));
#365=CARTESIAN_POINT('',(-49.9999999999972,-1.7347234759768E-15,-27.0));
#366=DIRECTION('',(-1.0,0.0,0.0));
#367=DIRECTION('',(0.0,0.0,1.0));
#368=DIRECTION('',(1.0,0.0,0.0));
#369=CARTESIAN_POINT('',(49.9999999999972,-1.7347234759768E-15,-27.0));
#370=DIRECTION('',(1.0,0.0,0.0));
#371=DIRECTION('',(0.0,0.0,-1.0));
#372=DIRECTION('',(1.0,0.0,0.0));
#373=CARTESIAN_POINT('',(-49.9999999999972,1.7347234759768E-15,27.0));
#374=DIRECTION('',(-1.0,0.0,0.0));
#375=DIRECTION('',(0.0,0.0,1.0));
#376=DIRECTION('',(1.0,0.0,0.0));
#377=CARTESIAN_POINT('',(49.9999999999972,1.7347234759768E-15,27.0));
#378=DIRECTION('',(1.0,0.0,0.0));
#379=DIRECTION('',(0.0,0.0,-1.0));
#380=DIRECTION('',(0.0,6.12303176911189E-17,1.0));
#381=DIRECTION('',(0.0,-6.12303176911189E-17,-1.0));
#382=DIRECTION('',(0.0,6.12303176911189E-17,-1.0));
#383=DIRECTION('',(0.0,-1.0,-1.22460635382238E-16));
#384=DIRECTION('',(0.0,1.0,0.0));
#385=DIRECTION('',(1.0,0.0,0.0));
#386=DIRECTION('',(0.0,1.0,1.22460635382238E-16));
#387=DIRECTION('',(0.0,-6.12303176911189E-17,1.0));
#388=DIRECTION('',(0.0,-1.0,0.0));
#389=DIRECTION('',(1.0,0.0,0.0));
ENDSEC;
END-ISO-10303-21;
