ISO-10303-21;
HEADER;
FILE_DESCRIPTION(('STEP AP203'),'1');
FILE_NAME('BASE00H1380.stp','2023-10-02T10:24:03',(' '),(' '),'Spatial InterOp 3D',' ',' ');
FILE_SCHEMA(('CONFIG_CONTROL_DESIGN'));
ENDSEC;
DATA;
#1=DESIGN_CONTEXT('',#61,'design');
#2=APPLICATION_PROTOCOL_DEFINITION('INTERNATIONAL STANDARD','config_control_design',1994,#61);
#3=PRODUCT_CATEGORY_RELATIONSHIP('NONE','NONE',#62,#63);
#4=DATE_AND_TIME(#64,#65);
#5=DATE_TIME_ROLE('creation_date');
#6=DATE_TIME_ROLE('classification_date');
#7=PERSON_AND_ORGANIZATION_ROLE('creator');
#8=PERSON_AND_ORGANIZATION_ROLE('design_supplier');
#9=PERSON_AND_ORGANIZATION_ROLE('classification_officer');
#10=PERSON_AND_ORGANIZATION_ROLE('design_owner');
#11=APPROVAL_PERSON_ORGANIZATION(#66,#67,#68);
#12=APPROVAL_DATE_TIME(#4,#67);
#13=CC_DESIGN_APPROVAL(#67,(#69,#70,#71));
#14=CC_DESIGN_DATE_AND_TIME_ASSIGNMENT(#4,#5,(#71));
#15=CC_DESIGN_DATE_AND_TIME_ASSIGNMENT(#4,#6,(#69));
#16=CC_DESIGN_PERSON_AND_ORGANIZATION_ASSIGNMENT(#66,#10,(#72));
#17=CC_DESIGN_PERSON_AND_ORGANIZATION_ASSIGNMENT(#66,#7,(#71));
#18=CC_DESIGN_PERSON_AND_ORGANIZATION_ASSIGNMENT(#66,#7,(#70));
#19=CC_DESIGN_PERSON_AND_ORGANIZATION_ASSIGNMENT(#66,#8,(#70));
#20=CC_DESIGN_SECURITY_CLASSIFICATION(#69,(#70));
#21=CC_DESIGN_PERSON_AND_ORGANIZATION_ASSIGNMENT(#66,#9,(#69));
#22=SHAPE_DEFINITION_REPRESENTATION(#73,#74);
#23= (GEOMETRIC_REPRESENTATION_CONTEXT(3)GLOBAL_UNCERTAINTY_ASSIGNED_CONTEXT((#77))GLOBAL_UNIT_ASSIGNED_CONTEXT((#79,#80,#81))REPRESENTATION_CONTEXT('NONE','WORKSPACE'));
#24=PROPERTY_DEFINITION_REPRESENTATION(#83,#84);
#25=GENERAL_PROPERTY_ASSOCIATION('','',#85,#83);
#26=PROPERTY_DEFINITION_REPRESENTATION(#86,#87);
#27=GENERAL_PROPERTY_ASSOCIATION('','',#88,#86);
#28=PROPERTY_DEFINITION_REPRESENTATION(#89,#90);
#29=GENERAL_PROPERTY_ASSOCIATION('','',#91,#89);
#30=PROPERTY_DEFINITION_REPRESENTATION(#92,#93);
#31=GENERAL_PROPERTY_ASSOCIATION('','',#94,#92);
#32=PROPERTY_DEFINITION_REPRESENTATION(#95,#96);
#33=GENERAL_PROPERTY_ASSOCIATION('','',#97,#95);
#34=PROPERTY_DEFINITION_REPRESENTATION(#98,#99);
#35=GENERAL_PROPERTY_ASSOCIATION('','',#100,#98);
#36=PROPERTY_DEFINITION_REPRESENTATION(#101,#102);
#37=GENERAL_PROPERTY_ASSOCIATION('','',#103,#101);
#38=PROPERTY_DEFINITION_REPRESENTATION(#104,#105);
#39=GENERAL_PROPERTY_ASSOCIATION('','',#106,#104);
#40=PROPERTY_DEFINITION_REPRESENTATION(#107,#108);
#41=GENERAL_PROPERTY_ASSOCIATION('','',#109,#107);
#42=PROPERTY_DEFINITION_REPRESENTATION(#110,#111);
#43=GENERAL_PROPERTY_ASSOCIATION('','',#112,#110);
#44=PROPERTY_DEFINITION_REPRESENTATION(#113,#114);
#45=GENERAL_PROPERTY_ASSOCIATION('','',#115,#113);
#46=PROPERTY_DEFINITION_REPRESENTATION(#116,#117);
#47=GENERAL_PROPERTY_ASSOCIATION('','',#118,#116);
#48=PROPERTY_DEFINITION_REPRESENTATION(#119,#120);
#49=GENERAL_PROPERTY_ASSOCIATION('','',#121,#119);
#50=PROPERTY_DEFINITION_REPRESENTATION(#122,#123);
#51=GENERAL_PROPERTY_ASSOCIATION('','',#124,#122);
#52=PROPERTY_DEFINITION_REPRESENTATION(#125,#126);
#53=GENERAL_PROPERTY_ASSOCIATION('','',#127,#125);
#54=PROPERTY_DEFINITION_REPRESENTATION(#128,#129);
#55=GENERAL_PROPERTY_ASSOCIATION('','',#130,#128);
#56=PROPERTY_DEFINITION_REPRESENTATION(#131,#132);
#57=GENERAL_PROPERTY_ASSOCIATION('','',#133,#131);
#61=APPLICATION_CONTEXT('CONFIGURATION CONTROLLED 3D DESIGNS OF MECHANICAL PARTS AND ASSEMBLIES');
#62=PRODUCT_CATEGORY('part','NONE');
#63=PRODUCT_RELATED_PRODUCT_CATEGORY('detail',' ',(#72));
#64=CALENDAR_DATE(2023,2,9);
#65=LOCAL_TIME(12,24,3.0,#134);
#66=PERSON_AND_ORGANIZATION(#135,#136);
#67=APPROVAL(#137,'SOLID MODEL');
#68=APPROVAL_ROLE('APPROVED');
#69=SECURITY_CLASSIFICATION('','',#138);
#70=PRODUCT_DEFINITION_FORMATION_WITH_SPECIFIED_SOURCE('A','NONE',#72,.NOT_KNOWN.);
#71=PRODUCT_DEFINITION('','NONE',#70,#1);
#72=PRODUCT('Equere de fixation au sol simple 30','%#@![$ComplementaryPartNumber=BASE00H1390]','Equere de fixation au sol simple 30',(#139));
#73=PRODUCT_DEFINITION_SHAPE('NONE','NONE',#71);
#74=ADVANCED_BREP_SHAPE_REPRESENTATION('1',(#140,#141),#23);
#77=UNCERTAINTY_MEASURE_WITH_UNIT(LENGTH_MEASURE(0.001),#79,'','');
#79= (CONVERSION_BASED_UNIT('MILLIMETRE',#144)LENGTH_UNIT()NAMED_UNIT(#147));
#80= (NAMED_UNIT(#149)PLANE_ANGLE_UNIT()SI_UNIT($,.RADIAN.));
#81= (NAMED_UNIT(#149)SOLID_ANGLE_UNIT()SI_UNIT($,.STERADIAN.));
#83=PROPERTY_DEFINITION('PdmObjectId','',#71);
#84=REPRESENTATION('',(#155),#23);
#85=GENERAL_PROPERTY('','37_d19a729c-028b-443f-a48b-711db3fa4d5c&5_8_0_10','');
#86=PROPERTY_DEFINITION('Type de production hellomoov','',#71);
#87=REPRESENTATION('',(#156),#23);
#88=GENERAL_PROPERTY('','pi\X2\00E8\X0\ce du stock','');
#89=PROPERTY_DEFINITION('FOURNISSEUR2','',#71);
#90=REPRESENTATION('',(#157),#23);
#91=GENERAL_PROPERTY('','\X2\00E0\X0\ d\X2\00E9\X0\finir','');
#92=PROPERTY_DEFINITION('FOURNISSEUR','',#71);
#93=REPRESENTATION('',(#158),#23);
#94=GENERAL_PROPERTY('','\X2\00E0\X0\ d\X2\00E9\X0\finir','');
#95=PROPERTY_DEFINITION('DESIGNATION_ENG','',#71);
#96=REPRESENTATION('',(#159),#23);
#97=GENERAL_PROPERTY('','','');
#98=PROPERTY_DEFINITION('CODE_TRANSEPT','',#71);
#99=REPRESENTATION('',(#160),#23);
#100=GENERAL_PROPERTY('','WSTFOVAL30','');
#101=PROPERTY_DEFINITION('CATALOGUE_ID','',#71);
#102=REPRESENTATION('',(#161),#23);
#103=GENERAL_PROPERTY('','1390','');
#104=PROPERTY_DEFINITION('CATALOGUE_LETTRE','',#71);
#105=REPRESENTATION('',(#162),#23);
#106=GENERAL_PROPERTY('','H','');
#107=PROPERTY_DEFINITION('CATALOGUE_LIGNE','',#71);
#108=REPRESENTATION('',(#163),#23);
#109=GENERAL_PROPERTY('','00','');
#110=PROPERTY_DEFINITION('CATALOGUE_PREFIXE','',#71);
#111=REPRESENTATION('',(#164),#23);
#112=GENERAL_PROPERTY('','BASE','');
#113=PROPERTY_DEFINITION('D\X2\00E9\X0\signation du mat\X2\00E9\X0\riau','',#71);
#114=REPRESENTATION('',(#165),#23);
#115=GENERAL_PROPERTY('','Aluminium EN AW 6063 T66','');
#116=PROPERTY_DEFINITION('Nom du mat\X2\00E9\X0\riau','',#71);
#117=REPRESENTATION('',(#166),#23);
#118=GENERAL_PROPERTY('','Aluminium EN AW 6063 T66','');
#119=PROPERTY_DEFINITION('Manufacturing Part Number','',#71);
#120=REPRESENTATION('',(#167),#23);
#121=GENERAL_PROPERTY('','093BA14030','');
#122=PROPERTY_DEFINITION('Manufacturer','',#71);
#123=REPRESENTATION('',(#168),#23);
#124=GENERAL_PROPERTY('','HELLOMOOV','');
#125=PROPERTY_DEFINITION('CreationDate','',#71);
#126=REPRESENTATION('',(#169),#23);
#127=GENERAL_PROPERTY('','12/06/2023 10:14:09','');
#128=PROPERTY_DEFINITION('Minor Revision','',#71);
#129=REPRESENTATION('',(#170),#23);
#130=GENERAL_PROPERTY('','7','');
#131=PROPERTY_DEFINITION('Complementary Part Number','',#71);
#132=REPRESENTATION('',(#171),#23);
#133=GENERAL_PROPERTY('','%#@![CATALOGUE_PREFIXE=BASE][CATALOGUE_LIGNE=00][CATALOGUE_LETTRE=H][CATALOGUE_ID=1390]','');
#134=COORDINATED_UNIVERSAL_TIME_OFFSET(1,0,.AHEAD.);
#135=PERSON('','UNSPECIFIED',$,$,$,$);
#136=ORGANIZATION('UNSPECIFIED','UNSPECIFIED','UNSPECIFIED');
#137=APPROVAL_STATUS('approved');
#138=SECURITY_CLASSIFICATION_LEVEL('unclassified');
#139=MECHANICAL_CONTEXT('',#61,'mechanical');
#140=MANIFOLD_SOLID_BREP('1',#172);
#141=AXIS2_PLACEMENT_3D('',#173,#174,#175);
#144=LENGTH_MEASURE_WITH_UNIT(LENGTH_MEASURE(1.0),#176);
#147=DIMENSIONAL_EXPONENTS(1.0,0.0,0.0,0.0,0.0,0.0,0.0);
#149=DIMENSIONAL_EXPONENTS(0.0,0.0,0.0,0.0,0.0,0.0,0.0);
#155=DESCRIPTIVE_REPRESENTATION_ITEM('','37_d19a729c-028b-443f-a48b-711db3fa4d5c&5_8_0_10');
#156=DESCRIPTIVE_REPRESENTATION_ITEM('','pi\X2\00E8\X0\ce du stock');
#157=DESCRIPTIVE_REPRESENTATION_ITEM('','\X2\00E0\X0\ d\X2\00E9\X0\finir');
#158=DESCRIPTIVE_REPRESENTATION_ITEM('','\X2\00E0\X0\ d\X2\00E9\X0\finir');
#159=DESCRIPTIVE_REPRESENTATION_ITEM('','');
#160=DESCRIPTIVE_REPRESENTATION_ITEM('','WSTFOVAL30');
#161=DESCRIPTIVE_REPRESENTATION_ITEM('','1390');
#162=DESCRIPTIVE_REPRESENTATION_ITEM('','H');
#163=DESCRIPTIVE_REPRESENTATION_ITEM('','00');
#164=DESCRIPTIVE_REPRESENTATION_ITEM('','BASE');
#165=DESCRIPTIVE_REPRESENTATION_ITEM('','Aluminium EN AW 6063 T66');
#166=DESCRIPTIVE_REPRESENTATION_ITEM('','Aluminium EN AW 6063 T66');
#167=DESCRIPTIVE_REPRESENTATION_ITEM('','093BA14030');
#168=DESCRIPTIVE_REPRESENTATION_ITEM('','HELLOMOOV');
#169=DESCRIPTIVE_REPRESENTATION_ITEM('','12/06/2023 10:14:09');
#170=DESCRIPTIVE_REPRESENTATION_ITEM('','7');
#171=DESCRIPTIVE_REPRESENTATION_ITEM('','%#@![CATALOGUE_PREFIXE=BASE][CATALOGUE_LIGNE=00][CATALOGUE_LETTRE=H][CATALOGUE_ID=1390]');
#172=CLOSED_SHELL('',(#177,#178,#179,#180,#181,#182,#183,#184,#185,#186,#187,#188,#189,#190,#191,#192));
#173=CARTESIAN_POINT('',(0.0,0.0,0.0));
#174=DIRECTION('',(0.0,0.0,1.0));
#175=DIRECTION('',(1.0,0.0,0.0));
#176= (NAMED_UNIT(#147)LENGTH_UNIT()SI_UNIT(.MILLI.,.METRE.));
#177=ADVANCED_FACE('',(#194,#195,#196),#197,.T.);
#178=ADVANCED_FACE('',(#198),#199,.T.);
#179=ADVANCED_FACE('',(#200),#201,.F.);
#180=ADVANCED_FACE('',(#202),#203,.T.);
#181=ADVANCED_FACE('',(#204,#205),#206,.T.);
#182=ADVANCED_FACE('',(#207,#208),#209,.F.);
#183=ADVANCED_FACE('',(#210,#211),#212,.F.);
#184=ADVANCED_FACE('',(#213),#214,.T.);
#185=ADVANCED_FACE('',(#215),#216,.F.);
#186=ADVANCED_FACE('',(#217),#218,.T.);
#187=ADVANCED_FACE('',(#219,#220),#221,.T.);
#188=ADVANCED_FACE('',(#222,#223,#224),#225,.T.);
#189=ADVANCED_FACE('',(#226),#227,.T.);
#190=ADVANCED_FACE('',(#228,#229),#230,.F.);
#191=ADVANCED_FACE('',(#231,#232),#233,.F.);
#192=ADVANCED_FACE('',(#234,#235),#236,.F.);
#194=FACE_BOUND('',#237,.T.);
#195=FACE_BOUND('',#238,.T.);
#196=FACE_OUTER_BOUND('',#239,.T.);
#197=PLANE('',#240);
#198=FACE_OUTER_BOUND('',#241,.T.);
#199=CYLINDRICAL_SURFACE('',#242,4.0);
#200=FACE_OUTER_BOUND('',#243,.T.);
#201=CYLINDRICAL_SURFACE('',#244,4.0);
#202=FACE_OUTER_BOUND('',#245,.T.);
#203=CYLINDRICAL_SURFACE('',#246,4.0);
#204=FACE_BOUND('',#247,.T.);
#205=FACE_OUTER_BOUND('',#248,.T.);
#206=PLANE('',#249);
#207=FACE_OUTER_BOUND('',#250,.T.);
#208=FACE_OUTER_BOUND('',#251,.T.);
#209=CYLINDRICAL_SURFACE('',#252,3.5);
#210=FACE_OUTER_BOUND('',#253,.T.);
#211=FACE_OUTER_BOUND('',#254,.T.);
#212=CYLINDRICAL_SURFACE('',#255,3.5);
#213=FACE_OUTER_BOUND('',#256,.T.);
#214=PLANE('',#257);
#215=FACE_OUTER_BOUND('',#258,.T.);
#216=PLANE('',#259);
#217=FACE_OUTER_BOUND('',#260,.T.);
#218=PLANE('',#261);
#219=FACE_BOUND('',#262,.T.);
#220=FACE_OUTER_BOUND('',#263,.T.);
#221=PLANE('',#264);
#222=FACE_BOUND('',#265,.T.);
#223=FACE_BOUND('',#266,.T.);
#224=FACE_OUTER_BOUND('',#267,.T.);
#225=PLANE('',#268);
#226=FACE_OUTER_BOUND('',#269,.T.);
#227=PLANE('',#270);
#228=FACE_OUTER_BOUND('',#271,.T.);
#229=FACE_OUTER_BOUND('',#272,.T.);
#230=CYLINDRICAL_SURFACE('',#273,5.5);
#231=FACE_OUTER_BOUND('',#274,.T.);
#232=FACE_OUTER_BOUND('',#275,.T.);
#233=CYLINDRICAL_SURFACE('',#276,11.0);
#234=FACE_BOUND('',#277,.T.);
#235=FACE_OUTER_BOUND('',#278,.T.);
#236=PLANE('',#279);
#237=EDGE_LOOP('',(#280));
#238=EDGE_LOOP('',(#281));
#239=EDGE_LOOP('',(#282,#283,#284,#285));
#240=AXIS2_PLACEMENT_3D('',#286,#287,#288);
#241=EDGE_LOOP('',(#289,#290,#291,#292));
#242=AXIS2_PLACEMENT_3D('',#293,#294,#295);
#243=EDGE_LOOP('',(#296,#297,#298,#299));
#244=AXIS2_PLACEMENT_3D('',#300,#301,#302);
#245=EDGE_LOOP('',(#303,#304,#305,#306));
#246=AXIS2_PLACEMENT_3D('',#307,#308,#309);
#247=EDGE_LOOP('',(#310));
#248=EDGE_LOOP('',(#311,#312,#313,#314));
#249=AXIS2_PLACEMENT_3D('',#315,#316,#317);
#250=EDGE_LOOP('',(#318));
#251=EDGE_LOOP('',(#319));
#252=AXIS2_PLACEMENT_3D('',#320,#321,#322);
#253=EDGE_LOOP('',(#323));
#254=EDGE_LOOP('',(#324));
#255=AXIS2_PLACEMENT_3D('',#325,#326,#327);
#256=EDGE_LOOP('',(#328,#329,#330,#331,#332,#333,#334,#335,#336));
#257=AXIS2_PLACEMENT_3D('',#337,#338,#339);
#258=EDGE_LOOP('',(#340,#341,#342,#343,#344,#345,#346,#347,#348));
#259=AXIS2_PLACEMENT_3D('',#349,#350,#351);
#260=EDGE_LOOP('',(#352,#353,#354,#355));
#261=AXIS2_PLACEMENT_3D('',#356,#357,#358);
#262=EDGE_LOOP('',(#359));
#263=EDGE_LOOP('',(#360,#361,#362,#363));
#264=AXIS2_PLACEMENT_3D('',#364,#365,#366);
#265=EDGE_LOOP('',(#367));
#266=EDGE_LOOP('',(#368));
#267=EDGE_LOOP('',(#369,#370,#371,#372));
#268=AXIS2_PLACEMENT_3D('',#373,#374,#375);
#269=EDGE_LOOP('',(#376,#377,#378,#379));
#270=AXIS2_PLACEMENT_3D('',#380,#381,#382);
#271=EDGE_LOOP('',(#383));
#272=EDGE_LOOP('',(#384));
#273=AXIS2_PLACEMENT_3D('',#385,#386,#387);
#274=EDGE_LOOP('',(#388));
#275=EDGE_LOOP('',(#389));
#276=AXIS2_PLACEMENT_3D('',#390,#391,#392);
#277=EDGE_LOOP('',(#393));
#278=EDGE_LOOP('',(#394));
#279=AXIS2_PLACEMENT_3D('',#395,#396,#397);
#280=ORIENTED_EDGE('',*,*,#398,.F.);
#281=ORIENTED_EDGE('',*,*,#399,.F.);
#282=ORIENTED_EDGE('',*,*,#400,.F.);
#283=ORIENTED_EDGE('',*,*,#401,.F.);
#284=ORIENTED_EDGE('',*,*,#402,.T.);
#285=ORIENTED_EDGE('',*,*,#403,.T.);
#286=CARTESIAN_POINT('',(6.0,13.5,75.0199));
#287=DIRECTION('',(1.0,0.0,1.22460635382238E-16));
#288=DIRECTION('',(-1.22460635382238E-16,0.0,1.0));
#289=ORIENTED_EDGE('',*,*,#404,.F.);
#290=ORIENTED_EDGE('',*,*,#403,.F.);
#291=ORIENTED_EDGE('',*,*,#405,.T.);
#292=ORIENTED_EDGE('',*,*,#406,.T.);
#293=CARTESIAN_POINT('',(1.99999999999997,13.5,136.0));
#294=DIRECTION('',(0.0,-1.0,0.0));
#295=DIRECTION('',(0.0,0.0,-1.0));
#296=ORIENTED_EDGE('',*,*,#407,.F.);
#297=ORIENTED_EDGE('',*,*,#408,.F.);
#298=ORIENTED_EDGE('',*,*,#409,.T.);
#299=ORIENTED_EDGE('',*,*,#401,.T.);
#300=CARTESIAN_POINT('',(10.0,13.5,14.0398));
#301=DIRECTION('',(0.0,-1.0,0.0));
#302=DIRECTION('',(0.0,0.0,-1.0));
#303=ORIENTED_EDGE('',*,*,#410,.F.);
#304=ORIENTED_EDGE('',*,*,#411,.F.);
#305=ORIENTED_EDGE('',*,*,#412,.T.);
#306=ORIENTED_EDGE('',*,*,#413,.T.);
#307=CARTESIAN_POINT('',(52.0,13.5,2.3347));
#308=DIRECTION('',(0.0,-1.0,0.0));
#309=DIRECTION('',(0.0,0.0,-1.0));
#310=ORIENTED_EDGE('',*,*,#414,.F.);
#311=ORIENTED_EDGE('',*,*,#415,.F.);
#312=ORIENTED_EDGE('',*,*,#413,.F.);
#313=ORIENTED_EDGE('',*,*,#416,.T.);
#314=ORIENTED_EDGE('',*,*,#408,.T.);
#315=CARTESIAN_POINT('',(31.0,13.5,8.18725));
#316=DIRECTION('',(0.0871561463643704,0.0,0.996194662779776));
#317=DIRECTION('',(-0.996194662779776,0.0,0.0871561463643704));
#318=ORIENTED_EDGE('',*,*,#417,.T.);
#319=ORIENTED_EDGE('',*,*,#399,.T.);
#320=CARTESIAN_POINT('',(0.0,0.0,120.0));
#321=DIRECTION('',(1.0,0.0,0.0));
#322=DIRECTION('',(0.0,-1.0,0.0));
#323=ORIENTED_EDGE('',*,*,#418,.T.);
#324=ORIENTED_EDGE('',*,*,#398,.T.);
#325=CARTESIAN_POINT('',(0.0,0.0,80.0));
#326=DIRECTION('',(1.0,0.0,0.0));
#327=DIRECTION('',(0.0,-1.0,0.0));
#328=ORIENTED_EDGE('',*,*,#410,.T.);
#329=ORIENTED_EDGE('',*,*,#415,.T.);
#330=ORIENTED_EDGE('',*,*,#407,.T.);
#331=ORIENTED_EDGE('',*,*,#400,.T.);
#332=ORIENTED_EDGE('',*,*,#404,.T.);
#333=ORIENTED_EDGE('',*,*,#419,.T.);
#334=ORIENTED_EDGE('',*,*,#420,.T.);
#335=ORIENTED_EDGE('',*,*,#421,.T.);
#336=ORIENTED_EDGE('',*,*,#422,.T.);
#337=CARTESIAN_POINT('',(52.0,-13.5,2.3347));
#338=DIRECTION('',(0.0,-1.0,0.0));
#339=DIRECTION('',(0.0,0.0,-1.0));
#340=ORIENTED_EDGE('',*,*,#412,.F.);
#341=ORIENTED_EDGE('',*,*,#423,.F.);
#342=ORIENTED_EDGE('',*,*,#424,.F.);
#343=ORIENTED_EDGE('',*,*,#425,.F.);
#344=ORIENTED_EDGE('',*,*,#426,.F.);
#345=ORIENTED_EDGE('',*,*,#405,.F.);
#346=ORIENTED_EDGE('',*,*,#402,.F.);
#347=ORIENTED_EDGE('',*,*,#409,.F.);
#348=ORIENTED_EDGE('',*,*,#416,.F.);
#349=CARTESIAN_POINT('',(52.0,13.5,2.3347));
#350=DIRECTION('',(0.0,-1.0,0.0));
#351=DIRECTION('',(0.0,0.0,-1.0));
#352=ORIENTED_EDGE('',*,*,#422,.F.);
#353=ORIENTED_EDGE('',*,*,#427,.F.);
#354=ORIENTED_EDGE('',*,*,#423,.T.);
#355=ORIENTED_EDGE('',*,*,#411,.T.);
#356=CARTESIAN_POINT('',(56.0,13.5,1.16735));
#357=DIRECTION('',(1.0,0.0,1.22460635382238E-16));
#358=DIRECTION('',(-1.22460635382238E-16,0.0,1.0));
#359=ORIENTED_EDGE('',*,*,#428,.F.);
#360=ORIENTED_EDGE('',*,*,#421,.F.);
#361=ORIENTED_EDGE('',*,*,#429,.F.);
#362=ORIENTED_EDGE('',*,*,#424,.T.);
#363=ORIENTED_EDGE('',*,*,#427,.T.);
#364=CARTESIAN_POINT('',(28.0,13.5,-6.93889390390723E-15));
#365=DIRECTION('',(0.0,0.0,-1.0));
#366=DIRECTION('',(1.0,0.0,0.0));
#367=ORIENTED_EDGE('',*,*,#418,.F.);
#368=ORIENTED_EDGE('',*,*,#417,.F.);
#369=ORIENTED_EDGE('',*,*,#420,.F.);
#370=ORIENTED_EDGE('',*,*,#430,.F.);
#371=ORIENTED_EDGE('',*,*,#425,.T.);
#372=ORIENTED_EDGE('',*,*,#429,.T.);
#373=CARTESIAN_POINT('',(0.0,13.5,70.0));
#374=DIRECTION('',(-1.0,0.0,0.0));
#375=DIRECTION('',(0.0,0.0,-1.0));
#376=ORIENTED_EDGE('',*,*,#419,.F.);
#377=ORIENTED_EDGE('',*,*,#406,.F.);
#378=ORIENTED_EDGE('',*,*,#426,.T.);
#379=ORIENTED_EDGE('',*,*,#430,.T.);
#380=CARTESIAN_POINT('',(1.0,13.5,140.0));
#381=DIRECTION('',(-6.12303176911189E-17,0.0,1.0));
#382=DIRECTION('',(-1.0,0.0,-6.12303176911189E-17));
#383=ORIENTED_EDGE('',*,*,#431,.T.);
#384=ORIENTED_EDGE('',*,*,#428,.T.);
#385=CARTESIAN_POINT('',(36.0,0.0,7.0));
#386=DIRECTION('',(0.0,0.0,-1.0));
#387=DIRECTION('',(1.0,0.0,0.0));
#388=ORIENTED_EDGE('',*,*,#414,.T.);
#389=ORIENTED_EDGE('',*,*,#432,.F.);
#390=CARTESIAN_POINT('',(36.0,0.0,6.5));
#391=DIRECTION('',(0.0,0.0,1.0));
#392=DIRECTION('',(1.0,0.0,0.0));
#393=ORIENTED_EDGE('',*,*,#431,.F.);
#394=ORIENTED_EDGE('',*,*,#432,.T.);
#395=CARTESIAN_POINT('',(36.0,0.0,6.5));
#396=DIRECTION('',(0.0,0.0,-1.0));
#397=DIRECTION('',(-1.0,0.0,0.0));
#398=EDGE_CURVE('',#433,#433,#434,.T.);
#399=EDGE_CURVE('',#435,#435,#436,.T.);
#400=EDGE_CURVE('',#437,#438,#439,.T.);
#401=EDGE_CURVE('',#440,#437,#441,.T.);
#402=EDGE_CURVE('',#440,#442,#443,.T.);
#403=EDGE_CURVE('',#442,#438,#444,.T.);
#404=EDGE_CURVE('',#438,#445,#446,.T.);
#405=EDGE_CURVE('',#442,#447,#448,.T.);
#406=EDGE_CURVE('',#447,#445,#449,.T.);
#407=EDGE_CURVE('',#450,#437,#451,.T.);
#408=EDGE_CURVE('',#452,#450,#453,.T.);
#409=EDGE_CURVE('',#452,#440,#454,.T.);
#410=EDGE_CURVE('',#455,#456,#457,.T.);
#411=EDGE_CURVE('',#458,#455,#459,.T.);
#412=EDGE_CURVE('',#458,#460,#461,.T.);
#413=EDGE_CURVE('',#460,#456,#462,.T.);
#414=EDGE_CURVE('',#463,#463,#464,.T.);
#415=EDGE_CURVE('',#456,#450,#465,.T.);
#416=EDGE_CURVE('',#460,#452,#466,.T.);
#417=EDGE_CURVE('',#467,#467,#468,.T.);
#418=EDGE_CURVE('',#469,#469,#470,.T.);
#419=EDGE_CURVE('',#445,#471,#472,.T.);
#420=EDGE_CURVE('',#471,#473,#474,.T.);
#421=EDGE_CURVE('',#473,#475,#476,.T.);
#422=EDGE_CURVE('',#475,#455,#477,.T.);
#423=EDGE_CURVE('',#478,#458,#479,.T.);
#424=EDGE_CURVE('',#480,#478,#481,.T.);
#425=EDGE_CURVE('',#482,#480,#483,.T.);
#426=EDGE_CURVE('',#447,#482,#484,.T.);
#427=EDGE_CURVE('',#478,#475,#485,.T.);
#428=EDGE_CURVE('',#486,#486,#487,.T.);
#429=EDGE_CURVE('',#480,#473,#488,.T.);
#430=EDGE_CURVE('',#482,#471,#489,.T.);
#431=EDGE_CURVE('',#490,#490,#491,.F.);
#432=EDGE_CURVE('',#492,#492,#493,.T.);
#433=VERTEX_POINT('',#494);
#434=CIRCLE('',#495,3.5);
#435=VERTEX_POINT('',#496);
#436=CIRCLE('',#497,3.5);
#437=VERTEX_POINT('',#498);
#438=VERTEX_POINT('',#499);
#439=LINE('',#500,#501);
#440=VERTEX_POINT('',#502);
#441=LINE('',#503,#504);
#442=VERTEX_POINT('',#505);
#443=LINE('',#506,#507);
#444=LINE('',#508,#509);
#445=VERTEX_POINT('',#510);
#446=CIRCLE('',#511,4.0);
#447=VERTEX_POINT('',#512);
#448=CIRCLE('',#513,4.0);
#449=LINE('',#514,#515);
#450=VERTEX_POINT('',#516);
#451=CIRCLE('',#517,4.0);
#452=VERTEX_POINT('',#518);
#453=LINE('',#519,#520);
#454=CIRCLE('',#521,4.0);
#455=VERTEX_POINT('',#522);
#456=VERTEX_POINT('',#523);
#457=CIRCLE('',#524,4.0);
#458=VERTEX_POINT('',#525);
#459=LINE('',#526,#527);
#460=VERTEX_POINT('',#528);
#461=CIRCLE('',#529,4.0);
#462=LINE('',#530,#531);
#463=VERTEX_POINT('',#532);
#464=ELLIPSE('',#533,11.0420186043817,11.0);
#465=LINE('',#534,#535);
#466=LINE('',#536,#537);
#467=VERTEX_POINT('',#538);
#468=CIRCLE('',#539,3.5);
#469=VERTEX_POINT('',#540);
#470=CIRCLE('',#541,3.5);
#471=VERTEX_POINT('',#542);
#472=LINE('',#543,#544);
#473=VERTEX_POINT('',#545);
#474=LINE('',#546,#547);
#475=VERTEX_POINT('',#548);
#476=LINE('',#549,#550);
#477=LINE('',#551,#552);
#478=VERTEX_POINT('',#553);
#479=LINE('',#554,#555);
#480=VERTEX_POINT('',#556);
#481=LINE('',#557,#558);
#482=VERTEX_POINT('',#559);
#483=LINE('',#560,#561);
#484=LINE('',#562,#563);
#485=LINE('',#564,#565);
#486=VERTEX_POINT('',#566);
#487=CIRCLE('',#567,5.5);
#488=LINE('',#568,#569);
#489=LINE('',#570,#571);
#490=VERTEX_POINT('',#572);
#491=CIRCLE('',#573,5.5);
#492=VERTEX_POINT('',#574);
#493=CIRCLE('',#575,11.0);
#494=CARTESIAN_POINT('',(6.0,0.0,76.5));
#495=AXIS2_PLACEMENT_3D('',#576,#577,#578);
#496=CARTESIAN_POINT('',(6.0,0.0,116.5));
#497=AXIS2_PLACEMENT_3D('',#579,#580,#581);
#498=CARTESIAN_POINT('',(6.0,-13.5,14.0398));
#499=CARTESIAN_POINT('',(6.0,-13.5,136.0));
#500=CARTESIAN_POINT('',(6.0,-13.5,75.0199));
#501=VECTOR('',#582,1.0);
#502=CARTESIAN_POINT('',(6.0,13.5,14.0398));
#503=CARTESIAN_POINT('',(6.0,13.5,14.0398));
#504=VECTOR('',#583,1.0);
#505=CARTESIAN_POINT('',(6.0,13.5,136.0));
#506=CARTESIAN_POINT('',(6.0,13.5,75.0199));
#507=VECTOR('',#584,1.0);
#508=CARTESIAN_POINT('',(6.0,13.5,136.0));
#509=VECTOR('',#585,1.0);
#510=CARTESIAN_POINT('',(2.0,-13.5,140.0));
#511=AXIS2_PLACEMENT_3D('',#586,#587,#588);
#512=CARTESIAN_POINT('',(2.0,13.5,140.0));
#513=AXIS2_PLACEMENT_3D('',#589,#590,#591);
#514=CARTESIAN_POINT('',(2.0,13.5,140.0));
#515=VECTOR('',#592,1.0);
#516=CARTESIAN_POINT('',(9.65137541454252,-13.5,10.0550213488809));
#517=AXIS2_PLACEMENT_3D('',#593,#594,#595);
#518=CARTESIAN_POINT('',(9.65137541454252,13.5,10.0550213488809));
#519=CARTESIAN_POINT('',(9.65137541454252,13.5,10.0550213488809));
#520=VECTOR('',#596,1.0);
#521=AXIS2_PLACEMENT_3D('',#597,#598,#599);
#522=CARTESIAN_POINT('',(56.0,-13.5,2.3347));
#523=CARTESIAN_POINT('',(52.3486245854575,-13.5,6.31947865111911));
#524=AXIS2_PLACEMENT_3D('',#600,#601,#602);
#525=CARTESIAN_POINT('',(56.0,13.5,2.3347));
#526=CARTESIAN_POINT('',(56.0,13.5,2.3347));
#527=VECTOR('',#603,1.0);
#528=CARTESIAN_POINT('',(52.3486245854575,13.5,6.31947865111911));
#529=AXIS2_PLACEMENT_3D('',#604,#605,#606);
#530=CARTESIAN_POINT('',(52.3486245854575,13.5,6.31947865111911));
#531=VECTOR('',#607,1.0);
#532=CARTESIAN_POINT('',(25.0,0.0,8.7121844307136));
#533=AXIS2_PLACEMENT_3D('',#608,#609,#610);
#534=CARTESIAN_POINT('',(31.0,-13.5,8.18725));
#535=VECTOR('',#611,1.0);
#536=CARTESIAN_POINT('',(31.0,13.5,8.18725));
#537=VECTOR('',#612,1.0);
#538=CARTESIAN_POINT('',(0.0,-3.5,120.0));
#539=AXIS2_PLACEMENT_3D('',#613,#614,#615);
#540=CARTESIAN_POINT('',(0.0,-3.5,80.0));
#541=AXIS2_PLACEMENT_3D('',#616,#617,#618);
#542=CARTESIAN_POINT('',(0.0,-13.5,140.0));
#543=CARTESIAN_POINT('',(1.0,-13.5,140.0));
#544=VECTOR('',#619,1.0);
#545=CARTESIAN_POINT('',(0.0,-13.5,0.0));
#546=CARTESIAN_POINT('',(0.0,-13.5,70.0));
#547=VECTOR('',#620,1.0);
#548=CARTESIAN_POINT('',(56.0,-13.5,-6.93889390390723E-15));
#549=CARTESIAN_POINT('',(28.0,-13.5,-6.93889390390723E-15));
#550=VECTOR('',#621,1.0);
#551=CARTESIAN_POINT('',(56.0,-13.5,1.16735));
#552=VECTOR('',#622,1.0);
#553=CARTESIAN_POINT('',(56.0,13.5,-6.93889390390723E-15));
#554=CARTESIAN_POINT('',(56.0,13.5,1.16735));
#555=VECTOR('',#623,1.0);
#556=CARTESIAN_POINT('',(0.0,13.5,0.0));
#557=CARTESIAN_POINT('',(28.0,13.5,-6.93889390390723E-15));
#558=VECTOR('',#624,1.0);
#559=CARTESIAN_POINT('',(0.0,13.5,140.0));
#560=CARTESIAN_POINT('',(0.0,13.5,70.0));
#561=VECTOR('',#625,1.0);
#562=CARTESIAN_POINT('',(1.0,13.5,140.0));
#563=VECTOR('',#626,1.0);
#564=CARTESIAN_POINT('',(56.0,13.5,-6.93889390390723E-15));
#565=VECTOR('',#627,1.0);
#566=CARTESIAN_POINT('',(30.5,0.0,-6.93889390390723E-15));
#567=AXIS2_PLACEMENT_3D('',#628,#629,#630);
#568=CARTESIAN_POINT('',(0.0,13.5,0.0));
#569=VECTOR('',#631,1.0);
#570=CARTESIAN_POINT('',(0.0,13.5,140.0));
#571=VECTOR('',#632,1.0);
#572=CARTESIAN_POINT('',(30.5,-1.34711147906209E-15,6.5));
#573=AXIS2_PLACEMENT_3D('',#633,#634,#635);
#574=CARTESIAN_POINT('',(47.0,0.0,6.5));
#575=AXIS2_PLACEMENT_3D('',#636,#637,#638);
#576=CARTESIAN_POINT('',(6.0,0.0,80.0));
#577=DIRECTION('',(1.0,0.0,1.22460635382238E-16));
#578=DIRECTION('',(1.22460635382238E-16,0.0,-1.0));
#579=CARTESIAN_POINT('',(6.0,0.0,120.0));
#580=DIRECTION('',(1.0,0.0,1.22460635382238E-16));
#581=DIRECTION('',(1.22460635382238E-16,0.0,-1.0));
#582=DIRECTION('',(-1.22460635382238E-16,0.0,1.0));
#583=DIRECTION('',(0.0,-1.0,0.0));
#584=DIRECTION('',(-1.22460635382238E-16,0.0,1.0));
#585=DIRECTION('',(0.0,-1.0,0.0));
#586=CARTESIAN_POINT('',(1.99999999999997,-13.5,136.0));
#587=DIRECTION('',(0.0,-1.0,0.0));
#588=DIRECTION('',(0.0,0.0,-1.0));
#589=CARTESIAN_POINT('',(1.99999999999997,13.5,136.0));
#590=DIRECTION('',(0.0,-1.0,0.0));
#591=DIRECTION('',(0.0,0.0,-1.0));
#592=DIRECTION('',(0.0,-1.0,0.0));
#593=CARTESIAN_POINT('',(10.0,-13.5,14.0398));
#594=DIRECTION('',(0.0,1.0,0.0));
#595=DIRECTION('',(0.0,0.0,-1.0));
#596=DIRECTION('',(0.0,-1.0,0.0));
#597=CARTESIAN_POINT('',(10.0,13.5,14.0398));
#598=DIRECTION('',(0.0,1.0,0.0));
#599=DIRECTION('',(0.0,0.0,-1.0));
#600=CARTESIAN_POINT('',(52.0,-13.5,2.3347));
#601=DIRECTION('',(0.0,-1.0,0.0));
#602=DIRECTION('',(0.0,0.0,-1.0));
#603=DIRECTION('',(0.0,-1.0,0.0));
#604=CARTESIAN_POINT('',(52.0,13.5,2.3347));
#605=DIRECTION('',(0.0,-1.0,0.0));
#606=DIRECTION('',(0.0,0.0,-1.0));
#607=DIRECTION('',(0.0,-1.0,0.0));
#608=CARTESIAN_POINT('',(36.0,0.0,7.74980464107201));
#609=DIRECTION('',(0.0871561463643704,0.0,0.996194662779776));
#610=DIRECTION('',(-0.996194662779776,0.0,0.0871561463643704));
#611=DIRECTION('',(-0.996194662779776,0.0,0.0871561463643704));
#612=DIRECTION('',(-0.996194662779776,0.0,0.0871561463643704));
#613=CARTESIAN_POINT('',(0.0,0.0,120.0));
#614=DIRECTION('',(-1.0,0.0,0.0));
#615=DIRECTION('',(0.0,-1.0,0.0));
#616=CARTESIAN_POINT('',(0.0,0.0,80.0));
#617=DIRECTION('',(-1.0,0.0,0.0));
#618=DIRECTION('',(0.0,-1.0,0.0));
#619=DIRECTION('',(-1.0,0.0,-6.12303176911189E-17));
#620=DIRECTION('',(0.0,0.0,-1.0));
#621=DIRECTION('',(1.0,0.0,0.0));
#622=DIRECTION('',(-1.22460635382238E-16,0.0,1.0));
#623=DIRECTION('',(-1.22460635382238E-16,0.0,1.0));
#624=DIRECTION('',(1.0,0.0,0.0));
#625=DIRECTION('',(0.0,0.0,-1.0));
#626=DIRECTION('',(-1.0,0.0,-6.12303176911189E-17));
#627=DIRECTION('',(0.0,-1.0,0.0));
#628=CARTESIAN_POINT('',(36.0,0.0,-6.93889390390723E-15));
#629=DIRECTION('',(0.0,0.0,-1.0));
#630=DIRECTION('',(-1.0,0.0,0.0));
#631=DIRECTION('',(0.0,-1.0,0.0));
#632=DIRECTION('',(0.0,-1.0,0.0));
#633=CARTESIAN_POINT('',(36.0,0.0,6.5));
#634=DIRECTION('',(0.0,0.0,-1.0));
#635=DIRECTION('',(-1.0,0.0,0.0));
#636=CARTESIAN_POINT('',(36.0,0.0,6.5));
#637=DIRECTION('',(0.0,0.0,1.0));
#638=DIRECTION('',(1.0,0.0,0.0));
ENDSEC;
END-ISO-10303-21;
