ISO-10303-21;
HEADER;
FILE_DESCRIPTION (( 'STEP AP214' ),
    '1' );
FILE_NAME ('BASE00H1777-Profilé cornière Alu 20x10x2, Brut.step',
    '2023-03-24T09:33:35',
    ( 'Altae' ),
    ( '' ),
    'SwSTEP 2.0',
    'SolidWorks 2021',
    '' );
FILE_SCHEMA (( 'AUTOMOTIVE_DESIGN' ));
ENDSEC;

DATA;
#1 = CARTESIAN_POINT ( 'NONE',  ( -10.00000000000000178, 0.000000000000000000, 25.00000000000000000 ) ) ;
#2 = EDGE_CURVE ( 'NONE', #17, #189, #236, .T. ) ;
#3 = CARTESIAN_POINT ( 'NONE',  ( -2.000000000000001776, 2.000000000000001776, 25.00000000000000000 ) ) ;
#4 = DIRECTION ( 'NONE',  ( 0.000000000000000000, -0.000000000000000000, 1.000000000000000000 ) ) ;
#5 = DIRECTION ( 'NONE',  ( 0.000000000000000000, 1.000000000000000000, 0.000000000000000000 ) ) ;
#6 = CARTESIAN_POINT ( 'NONE',  ( 0.000000000000000000, 20.00000000000000355, -25.00000000000000000 ) ) ;
#7 = DIRECTION ( 'NONE',  ( -0.000000000000000000, -0.000000000000000000, -1.000000000000000000 ) ) ;
#8 = FACE_OUTER_BOUND ( 'NONE', #93, .T. ) ;
#9 = UNCERTAINTY_MEASURE_WITH_UNIT (LENGTH_MEASURE( 1.000000000000000082E-05 ), #227, 'distance_accuracy_value', 'NONE');
#10 = SURFACE_STYLE_FILL_AREA ( #30 ) ;
#11 = STYLED_ITEM ( 'NONE', ( #55 ), #201 ) ;
#12 = ADVANCED_FACE ( 'NONE', ( #142 ), #105, .F. ) ;
#13 = SURFACE_SIDE_STYLE ('',( #76 ) ) ;
#14 = ORIENTED_EDGE ( 'NONE', *, *, #211, .F. ) ;
#15 =( NAMED_UNIT ( * ) PLANE_ANGLE_UNIT ( ) SI_UNIT ( $, .RADIAN. ) );
#16 = AXIS2_PLACEMENT_3D ( 'NONE', #1, #191, #4 ) ;
#17 = VERTEX_POINT ( 'NONE', #40 ) ;
#18 = CARTESIAN_POINT ( 'NONE',  ( -2.000000000000001776, 20.00000000000000355, -25.00000000000000000 ) ) ;
#19 = EDGE_CURVE ( 'NONE', #35, #180, #249, .T. ) ;
#20 = PRESENTATION_LAYER_ASSIGNMENT (  '', '', ( #233 ) ) ;
#21 = LINE ( 'NONE', #128, #177 ) ;
#22 = CARTESIAN_POINT ( 'NONE',  ( -10.00000000000000178, 0.000000000000000000, -25.00000000000000000 ) ) ;
#23 = EDGE_LOOP ( 'NONE', ( #65, #114, #229, #58 ) ) ;
#24 = CARTESIAN_POINT ( 'NONE',  ( -2.000000000000001776, 2.000000000000001776, -25.00000000000000000 ) ) ;
#25 = LINE ( 'NONE', #198, #218 ) ;
#26 = CARTESIAN_POINT ( 'NONE',  ( -10.00000000000000178, 2.000000000000001776, -25.00000000000000000 ) ) ;
#27 = UNCERTAINTY_MEASURE_WITH_UNIT (LENGTH_MEASURE( 1.000000000000000082E-05 ), #78, 'distance_accuracy_value', 'NONE');
#28 = ORIENTED_EDGE ( 'NONE', *, *, #61, .F. ) ;
#29 = CARTESIAN_POINT ( 'NONE',  ( -2.000000000000001776, 20.00000000000000355, 25.00000000000000000 ) ) ;
#30 = FILL_AREA_STYLE ('',( #115 ) ) ;
#31 = EDGE_CURVE ( 'NONE', #180, #189, #41, .T. ) ;
#32 = VECTOR ( 'NONE', #129, 1000.000000000000000 ) ;
#33 = APPLICATION_PROTOCOL_DEFINITION ( 'draft international standard', 'automotive_design', 1998, #82 ) ;
#34 =( LENGTH_UNIT ( ) NAMED_UNIT ( * ) SI_UNIT ( .MILLI., .METRE. ) );
#35 = VERTEX_POINT ( 'NONE', #86 ) ;
#36 = EDGE_CURVE ( 'NONE', #242, #180, #89, .T. ) ;
#37 = ORIENTED_EDGE ( 'NONE', *, *, #173, .T. ) ;
#38 =( GEOMETRIC_REPRESENTATION_CONTEXT ( 3 ) GLOBAL_UNCERTAINTY_ASSIGNED_CONTEXT ( ( #27 ) ) GLOBAL_UNIT_ASSIGNED_CONTEXT ( ( #78, #136, #221 ) ) REPRESENTATION_CONTEXT ( 'NONE', 'WORKASPACE' ) );
#39 = CARTESIAN_POINT ( 'NONE',  ( 0.000000000000000000, 20.00000000000000355, -25.00000000000000000 ) ) ;
#40 = CARTESIAN_POINT ( 'NONE',  ( -10.00000000000000178, 0.000000000000000000, 25.00000000000000000 ) ) ;
#41 = LINE ( 'NONE', #22, #146 ) ;
#42 = AXIS2_PLACEMENT_3D ( 'NONE', #98, #179, #262 ) ;
#43 = ORIENTED_EDGE ( 'NONE', *, *, #157, .F. ) ;
#44 = DIRECTION ( 'NONE',  ( -0.000000000000000000, -0.000000000000000000, -1.000000000000000000 ) ) ;
#45 = PLANE ( 'NONE',  #135 ) ;
#46 = CARTESIAN_POINT ( 'NONE',  ( -2.000000000000001776, 2.000000000000001776, 25.00000000000000000 ) ) ;
#47 = AXIS2_PLACEMENT_3D ( 'NONE', #126, #164, #63 ) ;
#48 = LINE ( 'NONE', #46, #208 ) ;
#49 = EDGE_CURVE ( 'NONE', #185, #56, #186, .T. ) ;
#50 = DIRECTION ( 'NONE',  ( 0.000000000000000000, 0.000000000000000000, -1.000000000000000000 ) ) ;
#51 = VERTEX_POINT ( 'NONE', #39 ) ;
#52 = LINE ( 'NONE', #29, #166 ) ;
#53 = VECTOR ( 'NONE', #44, 1000.000000000000000 ) ;
#54 = EDGE_CURVE ( 'NONE', #185, #51, #21, .T. ) ;
#55 = PRESENTATION_STYLE_ASSIGNMENT (( #266 ) ) ;
#56 = VERTEX_POINT ( 'NONE', #145 ) ;
#57 = ADVANCED_FACE ( 'NONE', ( #125 ), #62, .F. ) ;
#58 = ORIENTED_EDGE ( 'NONE', *, *, #2, .T. ) ;
#59 = PRODUCT_DEFINITION_FORMATION_WITH_SPECIFIED_SOURCE ( 'ANY', '', #216, .NOT_KNOWN. ) ;
#60 = DIRECTION ( 'NONE',  ( 0.000000000000000000, -1.000000000000000000, 0.000000000000000000 ) ) ;
#61 = EDGE_CURVE ( 'NONE', #85, #35, #143, .T. ) ;
#62 = PLANE ( 'NONE',  #64 ) ;
#63 = DIRECTION ( 'NONE',  ( 0.000000000000000000, 0.000000000000000000, 1.000000000000000000 ) ) ;
#64 = AXIS2_PLACEMENT_3D ( 'NONE', #205, #248, #210 ) ;
#65 = ORIENTED_EDGE ( 'NONE', *, *, #144, .T. ) ;
#66 = APPLICATION_CONTEXT ( 'automotive_design' ) ;
#67 = PRODUCT_RELATED_PRODUCT_CATEGORY ( 'part', '', ( #216 ) ) ;
#68 = FACE_OUTER_BOUND ( 'NONE', #81, .T. ) ;
#69 = LINE ( 'NONE', #149, #102 ) ;
#70 = DIRECTION ( 'NONE',  ( 1.000000000000000000, 0.000000000000000000, 0.000000000000000000 ) ) ;
#71 = AXIS2_PLACEMENT_3D ( 'NONE', #212, #215, #112 ) ;
#72 = CARTESIAN_POINT ( 'NONE',  ( -10.00000000000000178, 2.000000000000001776, -25.00000000000000000 ) ) ;
#73 = ORIENTED_EDGE ( 'NONE', *, *, #61, .T. ) ;
#74 = LINE ( 'NONE', #95, #32 ) ;
#75 = DIRECTION ( 'NONE',  ( 0.000000000000000000, 0.000000000000000000, -1.000000000000000000 ) ) ;
#76 = SURFACE_STYLE_FILL_AREA ( #261 ) ;
#77 = EDGE_LOOP ( 'NONE', ( #108, #159, #79, #204 ) ) ;
#78 =( LENGTH_UNIT ( ) NAMED_UNIT ( * ) SI_UNIT ( .MILLI., .METRE. ) );
#79 = ORIENTED_EDGE ( 'NONE', *, *, #235, .F. ) ;
#80 = ADVANCED_FACE ( 'NONE', ( #68 ), #104, .F. ) ;
#81 = EDGE_LOOP ( 'NONE', ( #99, #197, #228, #199 ) ) ;
#82 = APPLICATION_CONTEXT ( 'automotive_design' ) ;
#83 = ORIENTED_EDGE ( 'NONE', *, *, #31, .F. ) ;
#84 = VERTEX_POINT ( 'NONE', #18 ) ;
#85 = VERTEX_POINT ( 'NONE', #3 ) ;
#86 = CARTESIAN_POINT ( 'NONE',  ( -2.000000000000001776, 2.000000000000001776, -25.00000000000000000 ) ) ;
#87 = ADVANCED_FACE ( 'NONE', ( #231 ), #187, .F. ) ;
#88 = AXIS2_PLACEMENT_3D ( 'NONE', #268, #60, #207 ) ;
#89 = LINE ( 'NONE', #109, #53 ) ;
#90 = DIRECTION ( 'NONE',  ( -0.000000000000000000, -1.000000000000000000, -0.000000000000000000 ) ) ;
#91 = CARTESIAN_POINT ( 'NONE',  ( -10.00000000000000178, 0.000000000000000000, -25.00000000000000000 ) ) ;
#92 = DIRECTION ( 'NONE',  ( 1.000000000000000000, 0.000000000000000000, 0.000000000000000000 ) ) ;
#93 = EDGE_LOOP ( 'NONE', ( #258, #28, #101, #37 ) ) ;
#94 = CARTESIAN_POINT ( 'NONE',  ( -10.00000000000000178, 0.000000000000000000, 25.00000000000000000 ) ) ;
#95 = CARTESIAN_POINT ( 'NONE',  ( 0.000000000000000000, 0.000000000000000000, 25.00000000000000000 ) ) ;
#96 =( NAMED_UNIT ( * ) PLANE_ANGLE_UNIT ( ) SI_UNIT ( $, .RADIAN. ) );
#97 = UNCERTAINTY_MEASURE_WITH_UNIT (LENGTH_MEASURE( 1.000000000000000082E-05 ), #34, 'distance_accuracy_value', 'NONE');
#98 = CARTESIAN_POINT ( 'NONE',  ( 0.000000000000000000, 0.000000000000000000, 0.000000000000000000 ) ) ;
#99 = ORIENTED_EDGE ( 'NONE', *, *, #211, .T. ) ;
#100 = EDGE_CURVE ( 'NONE', #122, #167, #232, .T. ) ;
#101 = ORIENTED_EDGE ( 'NONE', *, *, #168, .F. ) ;
#102 = VECTOR ( 'NONE', #200, 1000.000000000000000 ) ;
#103 = EDGE_LOOP ( 'NONE', ( #116, #158, #43, #181 ) ) ;
#104 = PLANE ( 'NONE',  #88 ) ;
#105 = PLANE ( 'NONE',  #16 ) ;
#106 = VECTOR ( 'NONE', #147, 1000.000000000000000 ) ;
#107 =( GEOMETRIC_REPRESENTATION_CONTEXT ( 3 ) GLOBAL_UNCERTAINTY_ASSIGNED_CONTEXT ( ( #97 ) ) GLOBAL_UNIT_ASSIGNED_CONTEXT ( ( #34, #15, #118 ) ) REPRESENTATION_CONTEXT ( 'NONE', 'WORKASPACE' ) );
#108 = ORIENTED_EDGE ( 'NONE', *, *, #31, .T. ) ;
#109 = CARTESIAN_POINT ( 'NONE',  ( -10.00000000000000178, 2.000000000000001776, 25.00000000000000000 ) ) ;
#110 = ADVANCED_FACE ( 'NONE', ( #240 ), #155, .F. ) ;
#111 = CARTESIAN_POINT ( 'NONE',  ( -10.00000000000000178, 0.000000000000000000, 25.00000000000000000 ) ) ;
#112 = DIRECTION ( 'NONE',  ( -1.000000000000000000, 0.000000000000000000, -0.000000000000000000 ) ) ;
#113 = LINE ( 'NONE', #6, #245 ) ;
#114 = ORIENTED_EDGE ( 'NONE', *, *, #100, .F. ) ;
#115 = FILL_AREA_STYLE_COLOUR ( '', #203 ) ;
#116 = ORIENTED_EDGE ( 'NONE', *, *, #127, .T. ) ;
#117 = DIRECTION ( 'NONE',  ( -0.000000000000000000, -0.000000000000000000, -1.000000000000000000 ) ) ;
#118 =( NAMED_UNIT ( * ) SI_UNIT ( $, .STERADIAN. ) SOLID_ANGLE_UNIT ( ) );
#119 = ORIENTED_EDGE ( 'NONE', *, *, #168, .T. ) ;
#120 = EDGE_LOOP ( 'NONE', ( #250, #246, #153, #73 ) ) ;
#121 =( NAMED_UNIT ( * ) SI_UNIT ( $, .STERADIAN. ) SOLID_ANGLE_UNIT ( ) );
#122 = VERTEX_POINT ( 'NONE', #193 ) ;
#123 = VECTOR ( 'NONE', #161, 1000.000000000000000 ) ;
#124 = CARTESIAN_POINT ( 'NONE',  ( -10.00000000000000178, 2.000000000000001776, -25.00000000000000000 ) ) ;
#125 = FACE_OUTER_BOUND ( 'NONE', #120, .T. ) ;
#126 = CARTESIAN_POINT ( 'NONE',  ( 0.000000000000000000, 0.000000000000000000, 25.00000000000000000 ) ) ;
#127 = EDGE_CURVE ( 'NONE', #167, #51, #253, .T. ) ;
#128 = CARTESIAN_POINT ( 'NONE',  ( 0.000000000000000000, 20.00000000000000355, 25.00000000000000000 ) ) ;
#129 = DIRECTION ( 'NONE',  ( 0.000000000000000000, 1.000000000000000000, 0.000000000000000000 ) ) ;
#130 = PLANE ( 'NONE',  #247 ) ;
#131 = DIRECTION ( 'NONE',  ( 0.000000000000000000, 0.000000000000000000, -1.000000000000000000 ) ) ;
#132 = CARTESIAN_POINT ( 'NONE',  ( 0.000000000000000000, 0.000000000000000000, -25.00000000000000000 ) ) ;
#133 = ORIENTED_EDGE ( 'NONE', *, *, #222, .T. ) ;
#134 = ADVANCED_FACE ( 'NONE', ( #175 ), #220, .F. ) ;
#135 = AXIS2_PLACEMENT_3D ( 'NONE', #72, #131, #243 ) ;
#136 =( NAMED_UNIT ( * ) PLANE_ANGLE_UNIT ( ) SI_UNIT ( $, .RADIAN. ) );
#137 = APPLICATION_PROTOCOL_DEFINITION ( 'draft international standard', 'automotive_design', 1998, #66 ) ;
#138 = VECTOR ( 'NONE', #257, 1000.000000000000000 ) ;
#139 = ORIENTED_EDGE ( 'NONE', *, *, #235, .T. ) ;
#140 = ORIENTED_EDGE ( 'NONE', *, *, #19, .F. ) ;
#141 = SURFACE_SIDE_STYLE ('',( #10 ) ) ;
#142 = FACE_OUTER_BOUND ( 'NONE', #23, .T. ) ;
#143 = LINE ( 'NONE', #190, #183 ) ;
#144 = EDGE_CURVE ( 'NONE', #189, #167, #25, .T. ) ;
#145 = CARTESIAN_POINT ( 'NONE',  ( -2.000000000000001776, 20.00000000000000355, 25.00000000000000000 ) ) ;
#146 = VECTOR ( 'NONE', #148, 1000.000000000000000 ) ;
#147 = DIRECTION ( 'NONE',  ( -1.000000000000000000, -0.000000000000000000, -0.000000000000000000 ) ) ;
#148 = DIRECTION ( 'NONE',  ( -0.000000000000000000, -1.000000000000000000, -0.000000000000000000 ) ) ;
#149 = CARTESIAN_POINT ( 'NONE',  ( -10.00000000000000178, 2.000000000000001776, 25.00000000000000000 ) ) ;
#150 = VECTOR ( 'NONE', #5, 1000.000000000000000 ) ;
#151 = LINE ( 'NONE', #196, #138 ) ;
#152 = CARTESIAN_POINT ( 'NONE',  ( -10.00000000000000178, 2.000000000000001776, 25.00000000000000000 ) ) ;
#153 = ORIENTED_EDGE ( 'NONE', *, *, #184, .F. ) ;
#154 = ADVANCED_FACE ( 'NONE', ( #238 ), #45, .T. ) ;
#155 = PLANE ( 'NONE',  #171 ) ;
#156 = SURFACE_STYLE_USAGE ( .BOTH. , #141 ) ;
#157 = EDGE_CURVE ( 'NONE', #122, #185, #74, .T. ) ;
#158 = ORIENTED_EDGE ( 'NONE', *, *, #54, .F. ) ;
#159 = ORIENTED_EDGE ( 'NONE', *, *, #2, .F. ) ;
#160 = PRODUCT_DEFINITION ( 'UNKNOWN', '', #59, #244 ) ;
#161 = DIRECTION ( 'NONE',  ( -1.000000000000000000, 0.000000000000000000, 0.000000000000000000 ) ) ;
#162 = MECHANICAL_DESIGN_GEOMETRIC_PRESENTATION_REPRESENTATION (  '', ( #11 ), #38 ) ;
#163 = DIRECTION ( 'NONE',  ( -0.000000000000000000, -0.000000000000000000, -1.000000000000000000 ) ) ;
#164 = DIRECTION ( 'NONE',  ( -1.000000000000000000, 0.000000000000000000, 0.000000000000000000 ) ) ;
#165 = CARTESIAN_POINT ( 'NONE',  ( 0.000000000000000000, 20.00000000000000355, 25.00000000000000000 ) ) ;
#166 = VECTOR ( 'NONE', #117, 1000.000000000000000 ) ;
#167 = VERTEX_POINT ( 'NONE', #132 ) ;
#168 = EDGE_CURVE ( 'NONE', #56, #85, #48, .T. ) ;
#169 = CARTESIAN_POINT ( 'NONE',  ( 0.000000000000000000, 0.000000000000000000, -25.00000000000000000 ) ) ;
#170 = LINE ( 'NONE', #255, #192 ) ;
#171 = AXIS2_PLACEMENT_3D ( 'NONE', #94, #92, #50 ) ;
#172 = DIRECTION ( 'NONE',  ( -1.000000000000000000, 0.000000000000000000, 0.000000000000000000 ) ) ;
#173 = EDGE_CURVE ( 'NONE', #56, #84, #52, .T. ) ;
#174 = ORIENTED_EDGE ( 'NONE', *, *, #144, .F. ) ;
#175 = FACE_OUTER_BOUND ( 'NONE', #202, .T. ) ;
#176 = CARTESIAN_POINT ( 'NONE',  ( 0.000000000000000000, 20.00000000000000355, 25.00000000000000000 ) ) ;
#177 = VECTOR ( 'NONE', #230, 1000.000000000000000 ) ;
#178 = FILL_AREA_STYLE_COLOUR ( '', #188 ) ;
#179 = DIRECTION ( 'NONE',  ( 0.000000000000000000, 0.000000000000000000, 1.000000000000000000 ) ) ;
#180 = VERTEX_POINT ( 'NONE', #26 ) ;
#181 = ORIENTED_EDGE ( 'NONE', *, *, #100, .T. ) ;
#182 = SHAPE_DEFINITION_REPRESENTATION ( #241, #201 ) ;
#183 = VECTOR ( 'NONE', #252, 1000.000000000000000 ) ;
#184 = EDGE_CURVE ( 'NONE', #85, #242, #69, .T. ) ;
#185 = VERTEX_POINT ( 'NONE', #176 ) ;
#186 = LINE ( 'NONE', #165, #123 ) ;
#187 = PLANE ( 'NONE',  #47 ) ;
#188 = COLOUR_RGB ( '',0.8980392156862745390, 0.9215686274509803377, 0.9294117647058823817 ) ;
#189 = VERTEX_POINT ( 'NONE', #91 ) ;
#190 = CARTESIAN_POINT ( 'NONE',  ( -2.000000000000001776, 2.000000000000001776, 25.00000000000000000 ) ) ;
#191 = DIRECTION ( 'NONE',  ( 0.000000000000000000, 1.000000000000000000, 0.000000000000000000 ) ) ;
#192 = VECTOR ( 'NONE', #70, 1000.000000000000000 ) ;
#193 = CARTESIAN_POINT ( 'NONE',  ( 0.000000000000000000, 0.000000000000000000, 25.00000000000000000 ) ) ;
#194 = DIRECTION ( 'NONE',  ( -0.000000000000000000, -1.000000000000000000, -0.000000000000000000 ) ) ;
#195 = ADVANCED_FACE ( 'NONE', ( #8 ), #130, .F. ) ;
#196 = CARTESIAN_POINT ( 'NONE',  ( -10.00000000000000178, 0.000000000000000000, 25.00000000000000000 ) ) ;
#197 = ORIENTED_EDGE ( 'NONE', *, *, #173, .F. ) ;
#198 = CARTESIAN_POINT ( 'NONE',  ( -10.00000000000000178, 0.000000000000000000, -25.00000000000000000 ) ) ;
#199 = ORIENTED_EDGE ( 'NONE', *, *, #54, .T. ) ;
#200 = DIRECTION ( 'NONE',  ( -1.000000000000000000, -0.000000000000000000, -0.000000000000000000 ) ) ;
#201 = ADVANCED_BREP_SHAPE_REPRESENTATION ( 'BASE00H1777-ProfilÚ corniÞre Alu 20x10x2, Brut', ( #254, #42 ), #223 ) ;
#202 = EDGE_LOOP ( 'NONE', ( #139, #133, #263, #209, #119, #217 ) ) ;
#203 = COLOUR_RGB ( '',0.8980392156862745390, 0.9215686274509803377, 0.9294117647058823817 ) ;
#204 = ORIENTED_EDGE ( 'NONE', *, *, #36, .T. ) ;
#205 = CARTESIAN_POINT ( 'NONE',  ( -10.00000000000000178, 2.000000000000001776, 25.00000000000000000 ) ) ;
#206 = EDGE_CURVE ( 'NONE', #84, #35, #213, .T. ) ;
#207 = DIRECTION ( 'NONE',  ( 0.000000000000000000, -0.000000000000000000, -1.000000000000000000 ) ) ;
#208 = VECTOR ( 'NONE', #90, 1000.000000000000000 ) ;
#209 = ORIENTED_EDGE ( 'NONE', *, *, #49, .T. ) ;
#210 = DIRECTION ( 'NONE',  ( 0.000000000000000000, -0.000000000000000000, -1.000000000000000000 ) ) ;
#211 = EDGE_CURVE ( 'NONE', #51, #84, #113, .T. ) ;
#212 = CARTESIAN_POINT ( 'NONE',  ( -10.00000000000000178, 2.000000000000001776, 25.00000000000000000 ) ) ;
#213 = LINE ( 'NONE', #24, #224 ) ;
#214 = DIRECTION ( 'NONE',  ( 1.000000000000000000, 0.000000000000000000, 0.000000000000000000 ) ) ;
#215 = DIRECTION ( 'NONE',  ( 0.000000000000000000, 0.000000000000000000, -1.000000000000000000 ) ) ;
#216 = PRODUCT ( 'BASE00H1777-Profilé cornière Alu 20x10x2, Brut', 'BASE00H1777-Profilé cornière Alu 20x10x2, Brut', '', ( #225 ) ) ;
#217 = ORIENTED_EDGE ( 'NONE', *, *, #184, .T. ) ;
#218 = VECTOR ( 'NONE', #237, 1000.000000000000000 ) ;
#219 = VECTOR ( 'NONE', #163, 1000.000000000000000 ) ;
#220 = PLANE ( 'NONE',  #71 ) ;
#221 =( NAMED_UNIT ( * ) SI_UNIT ( $, .STERADIAN. ) SOLID_ANGLE_UNIT ( ) );
#222 = EDGE_CURVE ( 'NONE', #17, #122, #170, .T. ) ;
#223 =( GEOMETRIC_REPRESENTATION_CONTEXT ( 3 ) GLOBAL_UNCERTAINTY_ASSIGNED_CONTEXT ( ( #9 ) ) GLOBAL_UNIT_ASSIGNED_CONTEXT ( ( #227, #96, #121 ) ) REPRESENTATION_CONTEXT ( 'NONE', 'WORKASPACE' ) );
#224 = VECTOR ( 'NONE', #194, 1000.000000000000000 ) ;
#225 = PRODUCT_CONTEXT ( 'NONE', #66, 'mechanical' ) ;
#226 = EDGE_LOOP ( 'NONE', ( #83, #140, #267, #14, #264, #174 ) ) ;
#227 =( LENGTH_UNIT ( ) NAMED_UNIT ( * ) SI_UNIT ( .MILLI., .METRE. ) );
#228 = ORIENTED_EDGE ( 'NONE', *, *, #49, .F. ) ;
#229 = ORIENTED_EDGE ( 'NONE', *, *, #222, .F. ) ;
#230 = DIRECTION ( 'NONE',  ( -0.000000000000000000, -0.000000000000000000, -1.000000000000000000 ) ) ;
#231 = FACE_OUTER_BOUND ( 'NONE', #103, .T. ) ;
#232 = LINE ( 'NONE', #259, #256 ) ;
#233 = STYLED_ITEM ( 'NONE', ( #265 ), #254 ) ;
#234 = CLOSED_SHELL ( 'NONE', ( #110, #12, #87, #80, #195, #57, #134, #154 ) ) ;
#235 = EDGE_CURVE ( 'NONE', #242, #17, #151, .T. ) ;
#236 = LINE ( 'NONE', #111, #219 ) ;
#237 = DIRECTION ( 'NONE',  ( 1.000000000000000000, 0.000000000000000000, 0.000000000000000000 ) ) ;
#238 = FACE_OUTER_BOUND ( 'NONE', #226, .T. ) ;
#239 = PRESENTATION_LAYER_ASSIGNMENT (  '', '', ( #11 ) ) ;
#240 = FACE_OUTER_BOUND ( 'NONE', #77, .T. ) ;
#241 = PRODUCT_DEFINITION_SHAPE ( 'NONE', 'NONE',  #160 ) ;
#242 = VERTEX_POINT ( 'NONE', #152 ) ;
#243 = DIRECTION ( 'NONE',  ( -1.000000000000000000, 0.000000000000000000, -0.000000000000000000 ) ) ;
#244 = PRODUCT_DEFINITION_CONTEXT ( 'detailed design', #82, 'design' ) ;
#245 = VECTOR ( 'NONE', #172, 1000.000000000000000 ) ;
#246 = ORIENTED_EDGE ( 'NONE', *, *, #36, .F. ) ;
#247 = AXIS2_PLACEMENT_3D ( 'NONE', #260, #214, #75 ) ;
#248 = DIRECTION ( 'NONE',  ( 0.000000000000000000, -1.000000000000000000, 0.000000000000000000 ) ) ;
#249 = LINE ( 'NONE', #124, #106 ) ;
#250 = ORIENTED_EDGE ( 'NONE', *, *, #19, .T. ) ;
#251 = MECHANICAL_DESIGN_GEOMETRIC_PRESENTATION_REPRESENTATION (  '', ( #233 ), #107 ) ;
#252 = DIRECTION ( 'NONE',  ( -0.000000000000000000, -0.000000000000000000, -1.000000000000000000 ) ) ;
#253 = LINE ( 'NONE', #169, #150 ) ;
#254 = MANIFOLD_SOLID_BREP ( 'Boss.-Extru.1', #234 ) ;
#255 = CARTESIAN_POINT ( 'NONE',  ( -10.00000000000000178, 0.000000000000000000, 25.00000000000000000 ) ) ;
#256 = VECTOR ( 'NONE', #7, 1000.000000000000000 ) ;
#257 = DIRECTION ( 'NONE',  ( -0.000000000000000000, -1.000000000000000000, -0.000000000000000000 ) ) ;
#258 = ORIENTED_EDGE ( 'NONE', *, *, #206, .T. ) ;
#259 = CARTESIAN_POINT ( 'NONE',  ( 0.000000000000000000, 0.000000000000000000, 25.00000000000000000 ) ) ;
#260 = CARTESIAN_POINT ( 'NONE',  ( -2.000000000000001776, 2.000000000000001776, 25.00000000000000000 ) ) ;
#261 = FILL_AREA_STYLE ('',( #178 ) ) ;
#262 = DIRECTION ( 'NONE',  ( 1.000000000000000000, 0.000000000000000000, 0.000000000000000000 ) ) ;
#263 = ORIENTED_EDGE ( 'NONE', *, *, #157, .T. ) ;
#264 = ORIENTED_EDGE ( 'NONE', *, *, #127, .F. ) ;
#265 = PRESENTATION_STYLE_ASSIGNMENT (( #156 ) ) ;
#266 = SURFACE_STYLE_USAGE ( .BOTH. , #13 ) ;
#267 = ORIENTED_EDGE ( 'NONE', *, *, #206, .F. ) ;
#268 = CARTESIAN_POINT ( 'NONE',  ( 0.000000000000000000, 20.00000000000000355, 25.00000000000000000 ) ) ;
ENDSEC;
END-ISO-10303-21;
