ISO-10303-21;
HEADER;
FILE_DESCRIPTION (( 'STEP AP214' ),
    '1' );
FILE_NAME ('BASE00H1791-Profilé cornière Alu 40x15x2, brut.step',
    '2023-03-24T09:33:44',
    ( 'Altae' ),
    ( '' ),
    'SwSTEP 2.0',
    'SolidWorks 2021',
    '' );
FILE_SCHEMA (( 'AUTOMOTIVE_DESIGN' ));
ENDSEC;

DATA;
#1 = DIRECTION ( 'NONE',  ( -1.000000000000000000, -0.000000000000000000, -0.000000000000000000 ) ) ;
#2 = DIRECTION ( 'NONE',  ( 0.000000000000000000, 0.000000000000000000, -1.000000000000000000 ) ) ;
#3 = ORIENTED_EDGE ( 'NONE', *, *, #218, .F. ) ;
#4 = DIRECTION ( 'NONE',  ( 1.000000000000000000, 0.000000000000000000, 0.000000000000000000 ) ) ;
#5 = DIRECTION ( 'NONE',  ( 0.000000000000000000, -0.000000000000000000, -1.000000000000000000 ) ) ;
#6 = AXIS2_PLACEMENT_3D ( 'NONE', #191, #4, #252 ) ;
#7 = CARTESIAN_POINT ( 'NONE',  ( -15.00000000000000000, 0.000000000000000000, -25.00000000000000000 ) ) ;
#8 = EDGE_CURVE ( 'NONE', #217, #168, #242, .T. ) ;
#9 = LINE ( 'NONE', #7, #28 ) ;
#10 =( LENGTH_UNIT ( ) NAMED_UNIT ( * ) SI_UNIT ( .MILLI., .METRE. ) );
#11 = MECHANICAL_DESIGN_GEOMETRIC_PRESENTATION_REPRESENTATION (  '', ( #92 ), #241 ) ;
#12 = EDGE_LOOP ( 'NONE', ( #196, #171, #49, #145 ) ) ;
#13 = EDGE_CURVE ( 'NONE', #35, #217, #64, .T. ) ;
#14 = FILL_AREA_STYLE_COLOUR ( '', #207 ) ;
#15 = VERTEX_POINT ( 'NONE', #206 ) ;
#16 = DIRECTION ( 'NONE',  ( 0.000000000000000000, 0.000000000000000000, 1.000000000000000000 ) ) ;
#17 = ORIENTED_EDGE ( 'NONE', *, *, #66, .T. ) ;
#18 = EDGE_CURVE ( 'NONE', #222, #217, #89, .T. ) ;
#19 = VERTEX_POINT ( 'NONE', #186 ) ;
#20 = FACE_OUTER_BOUND ( 'NONE', #123, .T. ) ;
#21 = PRESENTATION_LAYER_ASSIGNMENT (  '', '', ( #92 ) ) ;
#22 = PRODUCT_CONTEXT ( 'NONE', #215, 'mechanical' ) ;
#23 = PRODUCT_DEFINITION ( 'UNKNOWN', '', #172, #79 ) ;
#24 = LINE ( 'NONE', #230, #176 ) ;
#25 = UNCERTAINTY_MEASURE_WITH_UNIT (LENGTH_MEASURE( 1.000000000000000082E-05 ), #193, 'distance_accuracy_value', 'NONE');
#26 = PLANE ( 'NONE',  #71 ) ;
#27 = VECTOR ( 'NONE', #150, 1000.000000000000000 ) ;
#28 = VECTOR ( 'NONE', #233, 1000.000000000000000 ) ;
#29 = ORIENTED_EDGE ( 'NONE', *, *, #18, .T. ) ;
#30 = CARTESIAN_POINT ( 'NONE',  ( -15.00000000000000000, 1.999999999999998224, -25.00000000000000000 ) ) ;
#31 = FILL_AREA_STYLE_COLOUR ( '', #32 ) ;
#32 = COLOUR_RGB ( '',0.8980392156862745390, 0.9215686274509803377, 0.9294117647058823817 ) ;
#33 = PRESENTATION_STYLE_ASSIGNMENT (( #213 ) ) ;
#34 = VECTOR ( 'NONE', #137, 1000.000000000000000 ) ;
#35 = VERTEX_POINT ( 'NONE', #223 ) ;
#36 = VECTOR ( 'NONE', #240, 1000.000000000000000 ) ;
#37 = PLANE ( 'NONE',  #199 ) ;
#38 = ORIENTED_EDGE ( 'NONE', *, *, #40, .F. ) ;
#39 = FILL_AREA_STYLE ('',( #14 ) ) ;
#40 = EDGE_CURVE ( 'NONE', #222, #265, #43, .T. ) ;
#41 = ORIENTED_EDGE ( 'NONE', *, *, #156, .T. ) ;
#42 = ORIENTED_EDGE ( 'NONE', *, *, #13, .T. ) ;
#43 = LINE ( 'NONE', #205, #102 ) ;
#44 =( NAMED_UNIT ( * ) PLANE_ANGLE_UNIT ( ) SI_UNIT ( $, .RADIAN. ) );
#45 = EDGE_LOOP ( 'NONE', ( #42, #246, #62, #112 ) ) ;
#46 = AXIS2_PLACEMENT_3D ( 'NONE', #244, #2, #245 ) ;
#47 = ADVANCED_FACE ( 'NONE', ( #20 ), #26, .F. ) ;
#48 = CARTESIAN_POINT ( 'NONE',  ( -15.00000000000000000, 1.999999999999998224, 25.00000000000000000 ) ) ;
#49 = ORIENTED_EDGE ( 'NONE', *, *, #258, .F. ) ;
#50 = LINE ( 'NONE', #100, #34 ) ;
#51 = ADVANCED_BREP_SHAPE_REPRESENTATION ( 'BASE00H1791-ProfilÚ corniÞre Alu 40x15x2, brut', ( #212, #76 ), #227 ) ;
#52 = DIRECTION ( 'NONE',  ( -1.000000000000000000, 0.000000000000000000, 0.000000000000000000 ) ) ;
#53 = CARTESIAN_POINT ( 'NONE',  ( 0.000000000000000000, 40.00000000000000000, -25.00000000000000000 ) ) ;
#54 = CARTESIAN_POINT ( 'NONE',  ( 0.000000000000000000, 40.00000000000000000, 25.00000000000000000 ) ) ;
#55 = ADVANCED_FACE ( 'NONE', ( #130 ), #154, .T. ) ;
#56 = ORIENTED_EDGE ( 'NONE', *, *, #121, .T. ) ;
#57 = LINE ( 'NONE', #164, #36 ) ;
#58 = VERTEX_POINT ( 'NONE', #88 ) ;
#59 = ORIENTED_EDGE ( 'NONE', *, *, #83, .F. ) ;
#60 = ADVANCED_FACE ( 'NONE', ( #67 ), #169, .F. ) ;
#61 =( NAMED_UNIT ( * ) SI_UNIT ( $, .STERADIAN. ) SOLID_ANGLE_UNIT ( ) );
#62 = ORIENTED_EDGE ( 'NONE', *, *, #66, .F. ) ;
#63 = VECTOR ( 'NONE', #72, 1000.000000000000000 ) ;
#64 = LINE ( 'NONE', #189, #256 ) ;
#65 = CARTESIAN_POINT ( 'NONE',  ( 0.000000000000000000, 40.00000000000000000, 25.00000000000000000 ) ) ;
#66 = EDGE_CURVE ( 'NONE', #266, #222, #228, .T. ) ;
#67 = FACE_OUTER_BOUND ( 'NONE', #263, .T. ) ;
#68 = CARTESIAN_POINT ( 'NONE',  ( -15.00000000000000000, 0.000000000000000000, 25.00000000000000000 ) ) ;
#69 = ORIENTED_EDGE ( 'NONE', *, *, #91, .F. ) ;
#70 = LINE ( 'NONE', #53, #234 ) ;
#71 = AXIS2_PLACEMENT_3D ( 'NONE', #68, #170, #188 ) ;
#72 = DIRECTION ( 'NONE',  ( -0.000000000000000000, -0.000000000000000000, -1.000000000000000000 ) ) ;
#73 = APPLICATION_CONTEXT ( 'automotive_design' ) ;
#74 = CARTESIAN_POINT ( 'NONE',  ( 0.000000000000000000, 40.00000000000000000, 25.00000000000000000 ) ) ;
#75 = DIRECTION ( 'NONE',  ( 0.000000000000000000, 0.000000000000000000, 1.000000000000000000 ) ) ;
#76 = AXIS2_PLACEMENT_3D ( 'NONE', #216, #16, #127 ) ;
#77 = PLANE ( 'NONE',  #106 ) ;
#78 = LINE ( 'NONE', #54, #104 ) ;
#79 = PRODUCT_DEFINITION_CONTEXT ( 'detailed design', #73, 'design' ) ;
#80 = ORIENTED_EDGE ( 'NONE', *, *, #163, .T. ) ;
#81 = CARTESIAN_POINT ( 'NONE',  ( -15.00000000000000000, 1.999999999999998224, 25.00000000000000000 ) ) ;
#82 =( LENGTH_UNIT ( ) NAMED_UNIT ( * ) SI_UNIT ( .MILLI., .METRE. ) );
#83 = EDGE_CURVE ( 'NONE', #238, #58, #201, .T. ) ;
#84 = ORIENTED_EDGE ( 'NONE', *, *, #208, .F. ) ;
#85 = VERTEX_POINT ( 'NONE', #153 ) ;
#86 = VECTOR ( 'NONE', #155, 1000.000000000000000 ) ;
#87 = EDGE_CURVE ( 'NONE', #19, #85, #113, .T. ) ;
#88 = CARTESIAN_POINT ( 'NONE',  ( -1.999999999999998224, 40.00000000000000000, -25.00000000000000000 ) ) ;
#89 = LINE ( 'NONE', #173, #27 ) ;
#90 = ORIENTED_EDGE ( 'NONE', *, *, #91, .T. ) ;
#91 = EDGE_CURVE ( 'NONE', #15, #125, #24, .T. ) ;
#92 = STYLED_ITEM ( 'NONE', ( #167 ), #51 ) ;
#93 = CARTESIAN_POINT ( 'NONE',  ( -15.00000000000000000, 0.000000000000000000, -25.00000000000000000 ) ) ;
#94 = CARTESIAN_POINT ( 'NONE',  ( 0.000000000000000000, 0.000000000000000000, 25.00000000000000000 ) ) ;
#95 = LINE ( 'NONE', #175, #264 ) ;
#96 = AXIS2_PLACEMENT_3D ( 'NONE', #115, #131, #152 ) ;
#97 = AXIS2_PLACEMENT_3D ( 'NONE', #253, #52, #75 ) ;
#98 = PLANE ( 'NONE',  #6 ) ;
#99 = EDGE_CURVE ( 'NONE', #168, #125, #9, .T. ) ;
#100 = CARTESIAN_POINT ( 'NONE',  ( -1.999999999999998224, 1.999999999999998224, 25.00000000000000000 ) ) ;
#101 = DIRECTION ( 'NONE',  ( 0.000000000000000000, 1.000000000000000000, 0.000000000000000000 ) ) ;
#102 = VECTOR ( 'NONE', #203, 1000.000000000000000 ) ;
#103 = STYLED_ITEM ( 'NONE', ( #33 ), #212 ) ;
#104 = VECTOR ( 'NONE', #122, 1000.000000000000000 ) ;
#105 = DIRECTION ( 'NONE',  ( -0.000000000000000000, -1.000000000000000000, -0.000000000000000000 ) ) ;
#106 = AXIS2_PLACEMENT_3D ( 'NONE', #194, #247, #117 ) ;
#107 = PRODUCT_RELATED_PRODUCT_CATEGORY ( 'part', '', ( #157 ) ) ;
#108 = APPLICATION_PROTOCOL_DEFINITION ( 'draft international standard', 'automotive_design', 1998, #73 ) ;
#109 = ORIENTED_EDGE ( 'NONE', *, *, #99, .T. ) ;
#110 = ORIENTED_EDGE ( 'NONE', *, *, #8, .F. ) ;
#111 = ORIENTED_EDGE ( 'NONE', *, *, #156, .F. ) ;
#112 = ORIENTED_EDGE ( 'NONE', *, *, #133, .T. ) ;
#113 = LINE ( 'NONE', #65, #118 ) ;
#114 = ADVANCED_FACE ( 'NONE', ( #231 ), #160, .F. ) ;
#115 = CARTESIAN_POINT ( 'NONE',  ( -15.00000000000000000, 0.000000000000000000, 25.00000000000000000 ) ) ;
#116 = ORIENTED_EDGE ( 'NONE', *, *, #258, .T. ) ;
#117 = DIRECTION ( 'NONE',  ( -1.000000000000000000, 0.000000000000000000, -0.000000000000000000 ) ) ;
#118 = VECTOR ( 'NONE', #151, 1000.000000000000000 ) ;
#119 = FACE_OUTER_BOUND ( 'NONE', #229, .T. ) ;
#120 = CARTESIAN_POINT ( 'NONE',  ( -15.00000000000000000, 0.000000000000000000, 25.00000000000000000 ) ) ;
#121 = EDGE_CURVE ( 'NONE', #265, #168, #140, .T. ) ;
#122 = DIRECTION ( 'NONE',  ( -1.000000000000000000, 0.000000000000000000, 0.000000000000000000 ) ) ;
#123 = EDGE_LOOP ( 'NONE', ( #128, #147, #38, #29 ) ) ;
#124 = DIRECTION ( 'NONE',  ( 0.000000000000000000, -1.000000000000000000, 0.000000000000000000 ) ) ;
#125 = VERTEX_POINT ( 'NONE', #177 ) ;
#126 = SURFACE_STYLE_FILL_AREA ( #39 ) ;
#127 = DIRECTION ( 'NONE',  ( 1.000000000000000000, 0.000000000000000000, 0.000000000000000000 ) ) ;
#128 = ORIENTED_EDGE ( 'NONE', *, *, #8, .T. ) ;
#129 = SHAPE_DEFINITION_REPRESENTATION ( #251, #51 ) ;
#130 = FACE_OUTER_BOUND ( 'NONE', #165, .T. ) ;
#131 = DIRECTION ( 'NONE',  ( 0.000000000000000000, 1.000000000000000000, 0.000000000000000000 ) ) ;
#132 = DIRECTION ( 'NONE',  ( -1.000000000000000000, -0.000000000000000000, -0.000000000000000000 ) ) ;
#133 = EDGE_CURVE ( 'NONE', #266, #35, #50, .T. ) ;
#134 = ORIENTED_EDGE ( 'NONE', *, *, #99, .F. ) ;
#135 = DIRECTION ( 'NONE',  ( -0.000000000000000000, -0.000000000000000000, -1.000000000000000000 ) ) ;
#136 = DIRECTION ( 'NONE',  ( 1.000000000000000000, 0.000000000000000000, 0.000000000000000000 ) ) ;
#137 = DIRECTION ( 'NONE',  ( -0.000000000000000000, -0.000000000000000000, -1.000000000000000000 ) ) ;
#138 = FACE_OUTER_BOUND ( 'NONE', #12, .T. ) ;
#139 = SURFACE_STYLE_FILL_AREA ( #209 ) ;
#140 = LINE ( 'NONE', #120, #63 ) ;
#141 = UNCERTAINTY_MEASURE_WITH_UNIT (LENGTH_MEASURE( 1.000000000000000082E-05 ), #10, 'distance_accuracy_value', 'NONE');
#142 = ORIENTED_EDGE ( 'NONE', *, *, #218, .T. ) ;
#143 = AXIS2_PLACEMENT_3D ( 'NONE', #74, #178, #5 ) ;
#144 = UNCERTAINTY_MEASURE_WITH_UNIT (LENGTH_MEASURE( 1.000000000000000082E-05 ), #82, 'distance_accuracy_value', 'NONE');
#145 = ORIENTED_EDGE ( 'NONE', *, *, #83, .T. ) ;
#146 = ADVANCED_FACE ( 'NONE', ( #138 ), #98, .F. ) ;
#147 = ORIENTED_EDGE ( 'NONE', *, *, #121, .F. ) ;
#148 = ORIENTED_EDGE ( 'NONE', *, *, #87, .T. ) ;
#149 = ORIENTED_EDGE ( 'NONE', *, *, #254, .F. ) ;
#150 = DIRECTION ( 'NONE',  ( -0.000000000000000000, -0.000000000000000000, -1.000000000000000000 ) ) ;
#151 = DIRECTION ( 'NONE',  ( -0.000000000000000000, -0.000000000000000000, -1.000000000000000000 ) ) ;
#152 = DIRECTION ( 'NONE',  ( 0.000000000000000000, -0.000000000000000000, 1.000000000000000000 ) ) ;
#153 = CARTESIAN_POINT ( 'NONE',  ( 0.000000000000000000, 40.00000000000000000, -25.00000000000000000 ) ) ;
#154 = PLANE ( 'NONE',  #46 ) ;
#155 = DIRECTION ( 'NONE',  ( 0.000000000000000000, 1.000000000000000000, 0.000000000000000000 ) ) ;
#156 = EDGE_CURVE ( 'NONE', #15, #19, #255, .T. ) ;
#157 = PRODUCT ( 'BASE00H1791-Profilé cornière Alu 40x15x2, brut', 'BASE00H1791-Profilé cornière Alu 40x15x2, brut', '', ( #22 ) ) ;
#158 =( NAMED_UNIT ( * ) PLANE_ANGLE_UNIT ( ) SI_UNIT ( $, .RADIAN. ) );
#159 = LINE ( 'NONE', #210, #249 ) ;
#160 = PLANE ( 'NONE',  #97 ) ;
#161 = FACE_OUTER_BOUND ( 'NONE', #45, .T. ) ;
#162 = CARTESIAN_POINT ( 'NONE',  ( -1.999999999999998224, 40.00000000000000000, 25.00000000000000000 ) ) ;
#163 = EDGE_CURVE ( 'NONE', #265, #15, #159, .T. ) ;
#164 = CARTESIAN_POINT ( 'NONE',  ( -1.999999999999998224, 1.999999999999998224, 25.00000000000000000 ) ) ;
#165 = EDGE_LOOP ( 'NONE', ( #110, #268, #149, #84, #3, #134 ) ) ;
#166 = CARTESIAN_POINT ( 'NONE',  ( -1.999999999999998224, 1.999999999999998224, -25.00000000000000000 ) ) ;
#167 = PRESENTATION_STYLE_ASSIGNMENT (( #180 ) ) ;
#168 = VERTEX_POINT ( 'NONE', #235 ) ;
#169 = PLANE ( 'NONE',  #96 ) ;
#170 = DIRECTION ( 'NONE',  ( 1.000000000000000000, 0.000000000000000000, 0.000000000000000000 ) ) ;
#171 = ORIENTED_EDGE ( 'NONE', *, *, #133, .F. ) ;
#172 = PRODUCT_DEFINITION_FORMATION_WITH_SPECIFIED_SOURCE ( 'ANY', '', #157, .NOT_KNOWN. ) ;
#173 = CARTESIAN_POINT ( 'NONE',  ( -15.00000000000000000, 1.999999999999998224, 25.00000000000000000 ) ) ;
#174 = DIRECTION ( 'NONE',  ( -1.000000000000000000, 0.000000000000000000, 0.000000000000000000 ) ) ;
#175 = CARTESIAN_POINT ( 'NONE',  ( 0.000000000000000000, 0.000000000000000000, -25.00000000000000000 ) ) ;
#176 = VECTOR ( 'NONE', #135, 1000.000000000000000 ) ;
#177 = CARTESIAN_POINT ( 'NONE',  ( 0.000000000000000000, 0.000000000000000000, -25.00000000000000000 ) ) ;
#178 = DIRECTION ( 'NONE',  ( 0.000000000000000000, -1.000000000000000000, 0.000000000000000000 ) ) ;
#179 = SURFACE_SIDE_STYLE ('',( #139 ) ) ;
#180 = SURFACE_STYLE_USAGE ( .BOTH. , #195 ) ;
#181 = CARTESIAN_POINT ( 'NONE',  ( -15.00000000000000000, 1.999999999999998224, 25.00000000000000000 ) ) ;
#182 = EDGE_LOOP ( 'NONE', ( #224, #80, #41, #183, #116, #17 ) ) ;
#183 = ORIENTED_EDGE ( 'NONE', *, *, #262, .T. ) ;
#184 = ORIENTED_EDGE ( 'NONE', *, *, #87, .F. ) ;
#185 = CLOSED_SHELL ( 'NONE', ( #47, #60, #114, #202, #146, #267, #197, #55 ) ) ;
#186 = CARTESIAN_POINT ( 'NONE',  ( 0.000000000000000000, 40.00000000000000000, 25.00000000000000000 ) ) ;
#187 =( NAMED_UNIT ( * ) SI_UNIT ( $, .STERADIAN. ) SOLID_ANGLE_UNIT ( ) );
#188 = DIRECTION ( 'NONE',  ( 0.000000000000000000, 0.000000000000000000, -1.000000000000000000 ) ) ;
#189 = CARTESIAN_POINT ( 'NONE',  ( -15.00000000000000000, 1.999999999999998224, -25.00000000000000000 ) ) ;
#190 = DIRECTION ( 'NONE',  ( -0.000000000000000000, -1.000000000000000000, -0.000000000000000000 ) ) ;
#191 = CARTESIAN_POINT ( 'NONE',  ( -1.999999999999998224, 1.999999999999998224, 25.00000000000000000 ) ) ;
#192 = FACE_OUTER_BOUND ( 'NONE', #182, .T. ) ;
#193 =( LENGTH_UNIT ( ) NAMED_UNIT ( * ) SI_UNIT ( .MILLI., .METRE. ) );
#194 = CARTESIAN_POINT ( 'NONE',  ( -15.00000000000000000, 1.999999999999998224, 25.00000000000000000 ) ) ;
#195 = SURFACE_SIDE_STYLE ('',( #126 ) ) ;
#196 = ORIENTED_EDGE ( 'NONE', *, *, #254, .T. ) ;
#197 = ADVANCED_FACE ( 'NONE', ( #192 ), #77, .F. ) ;
#198 =( NAMED_UNIT ( * ) PLANE_ANGLE_UNIT ( ) SI_UNIT ( $, .RADIAN. ) );
#199 = AXIS2_PLACEMENT_3D ( 'NONE', #181, #124, #260 ) ;
#200 = ORIENTED_EDGE ( 'NONE', *, *, #262, .F. ) ;
#201 = LINE ( 'NONE', #243, #248 ) ;
#202 = ADVANCED_FACE ( 'NONE', ( #119 ), #250, .F. ) ;
#203 = DIRECTION ( 'NONE',  ( -0.000000000000000000, -1.000000000000000000, -0.000000000000000000 ) ) ;
#204 = DIRECTION ( 'NONE',  ( -0.000000000000000000, -0.000000000000000000, -1.000000000000000000 ) ) ;
#205 = CARTESIAN_POINT ( 'NONE',  ( -15.00000000000000000, 0.000000000000000000, 25.00000000000000000 ) ) ;
#206 = CARTESIAN_POINT ( 'NONE',  ( 0.000000000000000000, 0.000000000000000000, 25.00000000000000000 ) ) ;
#207 = COLOUR_RGB ( '',0.8980392156862745390, 0.9215686274509803377, 0.9294117647058823817 ) ;
#208 = EDGE_CURVE ( 'NONE', #85, #58, #70, .T. ) ;
#209 = FILL_AREA_STYLE ('',( #31 ) ) ;
#210 = CARTESIAN_POINT ( 'NONE',  ( -15.00000000000000000, 0.000000000000000000, 25.00000000000000000 ) ) ;
#211 = VECTOR ( 'NONE', #105, 1000.000000000000000 ) ;
#212 = MANIFOLD_SOLID_BREP ( 'Boss.-Extru.1', #185 ) ;
#213 = SURFACE_STYLE_USAGE ( .BOTH. , #179 ) ;
#214 = CARTESIAN_POINT ( 'NONE',  ( -1.999999999999998224, 1.999999999999998224, 25.00000000000000000 ) ) ;
#215 = APPLICATION_CONTEXT ( 'automotive_design' ) ;
#216 = CARTESIAN_POINT ( 'NONE',  ( 0.000000000000000000, 0.000000000000000000, 0.000000000000000000 ) ) ;
#217 = VERTEX_POINT ( 'NONE', #30 ) ;
#218 = EDGE_CURVE ( 'NONE', #125, #85, #95, .T. ) ;
#219 = APPLICATION_PROTOCOL_DEFINITION ( 'draft international standard', 'automotive_design', 1998, #215 ) ;
#220 = ORIENTED_EDGE ( 'NONE', *, *, #163, .F. ) ;
#221 = VECTOR ( 'NONE', #190, 1000.000000000000000 ) ;
#222 = VERTEX_POINT ( 'NONE', #81 ) ;
#223 = CARTESIAN_POINT ( 'NONE',  ( -1.999999999999998224, 1.999999999999998224, -25.00000000000000000 ) ) ;
#224 = ORIENTED_EDGE ( 'NONE', *, *, #40, .T. ) ;
#225 = VECTOR ( 'NONE', #132, 1000.000000000000000 ) ;
#226 =( GEOMETRIC_REPRESENTATION_CONTEXT ( 3 ) GLOBAL_UNCERTAINTY_ASSIGNED_CONTEXT ( ( #25 ) ) GLOBAL_UNIT_ASSIGNED_CONTEXT ( ( #193, #158, #232 ) ) REPRESENTATION_CONTEXT ( 'NONE', 'WORKASPACE' ) );
#227 =( GEOMETRIC_REPRESENTATION_CONTEXT ( 3 ) GLOBAL_UNCERTAINTY_ASSIGNED_CONTEXT ( ( #141 ) ) GLOBAL_UNIT_ASSIGNED_CONTEXT ( ( #10, #198, #61 ) ) REPRESENTATION_CONTEXT ( 'NONE', 'WORKASPACE' ) );
#228 = LINE ( 'NONE', #48, #225 ) ;
#229 = EDGE_LOOP ( 'NONE', ( #236, #59, #200, #148 ) ) ;
#230 = CARTESIAN_POINT ( 'NONE',  ( 0.000000000000000000, 0.000000000000000000, 25.00000000000000000 ) ) ;
#231 = FACE_OUTER_BOUND ( 'NONE', #261, .T. ) ;
#232 =( NAMED_UNIT ( * ) SI_UNIT ( $, .STERADIAN. ) SOLID_ANGLE_UNIT ( ) );
#233 = DIRECTION ( 'NONE',  ( 1.000000000000000000, 0.000000000000000000, 0.000000000000000000 ) ) ;
#234 = VECTOR ( 'NONE', #174, 1000.000000000000000 ) ;
#235 = CARTESIAN_POINT ( 'NONE',  ( -15.00000000000000000, 0.000000000000000000, -25.00000000000000000 ) ) ;
#236 = ORIENTED_EDGE ( 'NONE', *, *, #208, .T. ) ;
#237 = LINE ( 'NONE', #166, #211 ) ;
#238 = VERTEX_POINT ( 'NONE', #162 ) ;
#239 = PRESENTATION_LAYER_ASSIGNMENT (  '', '', ( #103 ) ) ;
#240 = DIRECTION ( 'NONE',  ( -0.000000000000000000, -1.000000000000000000, -0.000000000000000000 ) ) ;
#241 =( GEOMETRIC_REPRESENTATION_CONTEXT ( 3 ) GLOBAL_UNCERTAINTY_ASSIGNED_CONTEXT ( ( #144 ) ) GLOBAL_UNIT_ASSIGNED_CONTEXT ( ( #82, #44, #187 ) ) REPRESENTATION_CONTEXT ( 'NONE', 'WORKASPACE' ) );
#242 = LINE ( 'NONE', #93, #221 ) ;
#243 = CARTESIAN_POINT ( 'NONE',  ( -1.999999999999998224, 40.00000000000000000, 25.00000000000000000 ) ) ;
#244 = CARTESIAN_POINT ( 'NONE',  ( -15.00000000000000000, 1.999999999999998224, -25.00000000000000000 ) ) ;
#245 = DIRECTION ( 'NONE',  ( -1.000000000000000000, 0.000000000000000000, -0.000000000000000000 ) ) ;
#246 = ORIENTED_EDGE ( 'NONE', *, *, #18, .F. ) ;
#247 = DIRECTION ( 'NONE',  ( 0.000000000000000000, 0.000000000000000000, -1.000000000000000000 ) ) ;
#248 = VECTOR ( 'NONE', #204, 1000.000000000000000 ) ;
#249 = VECTOR ( 'NONE', #136, 1000.000000000000000 ) ;
#250 = PLANE ( 'NONE',  #143 ) ;
#251 = PRODUCT_DEFINITION_SHAPE ( 'NONE', 'NONE',  #23 ) ;
#252 = DIRECTION ( 'NONE',  ( 0.000000000000000000, 0.000000000000000000, -1.000000000000000000 ) ) ;
#253 = CARTESIAN_POINT ( 'NONE',  ( 0.000000000000000000, 0.000000000000000000, 25.00000000000000000 ) ) ;
#254 = EDGE_CURVE ( 'NONE', #58, #35, #237, .T. ) ;
#255 = LINE ( 'NONE', #94, #86 ) ;
#256 = VECTOR ( 'NONE', #1, 1000.000000000000000 ) ;
#257 = MECHANICAL_DESIGN_GEOMETRIC_PRESENTATION_REPRESENTATION (  '', ( #103 ), #226 ) ;
#258 = EDGE_CURVE ( 'NONE', #238, #266, #57, .T. ) ;
#259 = CARTESIAN_POINT ( 'NONE',  ( -15.00000000000000000, 0.000000000000000000, 25.00000000000000000 ) ) ;
#260 = DIRECTION ( 'NONE',  ( 0.000000000000000000, -0.000000000000000000, -1.000000000000000000 ) ) ;
#261 = EDGE_LOOP ( 'NONE', ( #142, #184, #111, #90 ) ) ;
#262 = EDGE_CURVE ( 'NONE', #19, #238, #78, .T. ) ;
#263 = EDGE_LOOP ( 'NONE', ( #109, #69, #220, #56 ) ) ;
#264 = VECTOR ( 'NONE', #101, 1000.000000000000000 ) ;
#265 = VERTEX_POINT ( 'NONE', #259 ) ;
#266 = VERTEX_POINT ( 'NONE', #214 ) ;
#267 = ADVANCED_FACE ( 'NONE', ( #161 ), #37, .F. ) ;
#268 = ORIENTED_EDGE ( 'NONE', *, *, #13, .F. ) ;
ENDSEC;
END-ISO-10303-21;
