ISO-10303-21;
HEADER;
FILE_DESCRIPTION (( 'STEP AP214' ),
    '1' );
FILE_NAME ('BASE00H1795-Profilé cornière Alu 40x30x2, brut.step',
    '2023-03-24T09:33:47',
    ( 'Altae' ),
    ( '' ),
    'SwSTEP 2.0',
    'SolidWorks 2021',
    '' );
FILE_SCHEMA (( 'AUTOMOTIVE_DESIGN' ));
ENDSEC;

DATA;
#1 = ORIENTED_EDGE ( 'NONE', *, *, #124, .T. ) ;
#2 = DIRECTION ( 'NONE',  ( -0.000000000000000000, -0.000000000000000000, -1.000000000000000000 ) ) ;
#3 = PLANE ( 'NONE',  #84 ) ;
#4 = FILL_AREA_STYLE_COLOUR ( '', #123 ) ;
#5 = VECTOR ( 'NONE', #142, 1000.000000000000000 ) ;
#6 = VECTOR ( 'NONE', #66, 1000.000000000000000 ) ;
#7 =( NAMED_UNIT ( * ) PLANE_ANGLE_UNIT ( ) SI_UNIT ( $, .RADIAN. ) );
#8 = CARTESIAN_POINT ( 'NONE',  ( 0.000000000000000000, 40.00000000000000000, 25.00000000000000000 ) ) ;
#9 = UNCERTAINTY_MEASURE_WITH_UNIT (LENGTH_MEASURE( 1.000000000000000082E-05 ), #191, 'distance_accuracy_value', 'NONE');
#10 = CARTESIAN_POINT ( 'NONE',  ( 0.000000000000000000, 0.000000000000000000, -25.00000000000000000 ) ) ;
#11 =( LENGTH_UNIT ( ) NAMED_UNIT ( * ) SI_UNIT ( .MILLI., .METRE. ) );
#12 = PLANE ( 'NONE',  #234 ) ;
#13 = UNCERTAINTY_MEASURE_WITH_UNIT (LENGTH_MEASURE( 1.000000000000000082E-05 ), #215, 'distance_accuracy_value', 'NONE');
#14 = AXIS2_PLACEMENT_3D ( 'NONE', #130, #231, #147 ) ;
#15 = DIRECTION ( 'NONE',  ( -0.000000000000000000, -0.000000000000000000, -1.000000000000000000 ) ) ;
#16 = ORIENTED_EDGE ( 'NONE', *, *, #174, .F. ) ;
#17 = ORIENTED_EDGE ( 'NONE', *, *, #137, .F. ) ;
#18 = VECTOR ( 'NONE', #46, 1000.000000000000000 ) ;
#19 = LINE ( 'NONE', #8, #18 ) ;
#20 = DIRECTION ( 'NONE',  ( 0.000000000000000000, 0.000000000000000000, -1.000000000000000000 ) ) ;
#21 = CARTESIAN_POINT ( 'NONE',  ( -2.000000000000001776, 40.00000000000000000, 25.00000000000000000 ) ) ;
#22 = SURFACE_SIDE_STYLE ('',( #194 ) ) ;
#23 = PLANE ( 'NONE',  #171 ) ;
#24 = CARTESIAN_POINT ( 'NONE',  ( -2.000000000000001776, 2.000000000000001776, -25.00000000000000000 ) ) ;
#25 = DIRECTION ( 'NONE',  ( -1.000000000000000000, -0.000000000000000000, -0.000000000000000000 ) ) ;
#26 = FILL_AREA_STYLE ('',( #4 ) ) ;
#27 = DIRECTION ( 'NONE',  ( -0.000000000000000000, -0.000000000000000000, -1.000000000000000000 ) ) ;
#28 = DIRECTION ( 'NONE',  ( 0.000000000000000000, -1.000000000000000000, 0.000000000000000000 ) ) ;
#29 = EDGE_CURVE ( 'NONE', #267, #59, #30, .T. ) ;
#30 = LINE ( 'NONE', #116, #5 ) ;
#31 = PLANE ( 'NONE',  #72 ) ;
#32 = VECTOR ( 'NONE', #15, 1000.000000000000000 ) ;
#33 = EDGE_LOOP ( 'NONE', ( #1, #35, #144, #121 ) ) ;
#34 = EDGE_CURVE ( 'NONE', #223, #247, #199, .T. ) ;
#35 = ORIENTED_EDGE ( 'NONE', *, *, #34, .F. ) ;
#36 = ORIENTED_EDGE ( 'NONE', *, *, #132, .F. ) ;
#37 = EDGE_CURVE ( 'NONE', #164, #181, #77, .T. ) ;
#38 = SURFACE_SIDE_STYLE ('',( #62 ) ) ;
#39 = FACE_OUTER_BOUND ( 'NONE', #246, .T. ) ;
#40 = DIRECTION ( 'NONE',  ( -0.000000000000000000, -1.000000000000000000, -0.000000000000000000 ) ) ;
#41 = DIRECTION ( 'NONE',  ( -0.000000000000000000, -0.000000000000000000, -1.000000000000000000 ) ) ;
#42 = LINE ( 'NONE', #45, #192 ) ;
#43 = CARTESIAN_POINT ( 'NONE',  ( -2.000000000000001776, 2.000000000000001776, -25.00000000000000000 ) ) ;
#44 = VECTOR ( 'NONE', #187, 1000.000000000000000 ) ;
#45 = CARTESIAN_POINT ( 'NONE',  ( 0.000000000000000000, 0.000000000000000000, 25.00000000000000000 ) ) ;
#46 = DIRECTION ( 'NONE',  ( -0.000000000000000000, -0.000000000000000000, -1.000000000000000000 ) ) ;
#47 = FILL_AREA_STYLE_COLOUR ( '', #53 ) ;
#48 = ADVANCED_FACE ( 'NONE', ( #222 ), #31, .F. ) ;
#49 = CARTESIAN_POINT ( 'NONE',  ( -30.00000000000000000, 0.000000000000000000, -25.00000000000000000 ) ) ;
#50 =( GEOMETRIC_REPRESENTATION_CONTEXT ( 3 ) GLOBAL_UNCERTAINTY_ASSIGNED_CONTEXT ( ( #13 ) ) GLOBAL_UNIT_ASSIGNED_CONTEXT ( ( #215, #136, #196 ) ) REPRESENTATION_CONTEXT ( 'NONE', 'WORKASPACE' ) );
#51 = VECTOR ( 'NONE', #213, 1000.000000000000000 ) ;
#52 = ORIENTED_EDGE ( 'NONE', *, *, #245, .T. ) ;
#53 = COLOUR_RGB ( '',0.8980392156862745390, 0.9215686274509803377, 0.9294117647058823817 ) ;
#54 = DIRECTION ( 'NONE',  ( -1.000000000000000000, 0.000000000000000000, 0.000000000000000000 ) ) ;
#55 = DIRECTION ( 'NONE',  ( 0.000000000000000000, 1.000000000000000000, 0.000000000000000000 ) ) ;
#56 = ADVANCED_FACE ( 'NONE', ( #39 ), #235, .F. ) ;
#57 = EDGE_LOOP ( 'NONE', ( #141, #16, #262, #100 ) ) ;
#58 = ORIENTED_EDGE ( 'NONE', *, *, #201, .F. ) ;
#59 = VERTEX_POINT ( 'NONE', #210 ) ;
#60 = DIRECTION ( 'NONE',  ( 0.000000000000000000, 0.000000000000000000, -1.000000000000000000 ) ) ;
#61 = VECTOR ( 'NONE', #89, 1000.000000000000000 ) ;
#62 = SURFACE_STYLE_FILL_AREA ( #26 ) ;
#63 = CARTESIAN_POINT ( 'NONE',  ( -2.000000000000001776, 2.000000000000001776, 25.00000000000000000 ) ) ;
#64 = CARTESIAN_POINT ( 'NONE',  ( 0.000000000000000000, 40.00000000000000000, 25.00000000000000000 ) ) ;
#65 = CARTESIAN_POINT ( 'NONE',  ( -30.00000000000000000, 2.000000000000001776, -25.00000000000000000 ) ) ;
#66 = DIRECTION ( 'NONE',  ( 1.000000000000000000, 0.000000000000000000, 0.000000000000000000 ) ) ;
#67 = VECTOR ( 'NONE', #127, 1000.000000000000000 ) ;
#68 = PRODUCT_CONTEXT ( 'NONE', #184, 'mechanical' ) ;
#69 = EDGE_CURVE ( 'NONE', #200, #158, #88, .T. ) ;
#70 = CARTESIAN_POINT ( 'NONE',  ( -30.00000000000000000, 2.000000000000001776, 25.00000000000000000 ) ) ;
#71 = LINE ( 'NONE', #112, #80 ) ;
#72 = AXIS2_PLACEMENT_3D ( 'NONE', #117, #85, #105 ) ;
#73 = AXIS2_PLACEMENT_3D ( 'NONE', #63, #252, #60 ) ;
#74 = EDGE_CURVE ( 'NONE', #200, #206, #42, .T. ) ;
#75 = ORIENTED_EDGE ( 'NONE', *, *, #29, .T. ) ;
#76 = AXIS2_PLACEMENT_3D ( 'NONE', #261, #28, #217 ) ;
#77 = LINE ( 'NONE', #159, #185 ) ;
#78 = ORIENTED_EDGE ( 'NONE', *, *, #115, .T. ) ;
#79 = ORIENTED_EDGE ( 'NONE', *, *, #137, .T. ) ;
#80 = VECTOR ( 'NONE', #25, 1000.000000000000000 ) ;
#81 = EDGE_LOOP ( 'NONE', ( #95, #160, #176, #249, #36, #58 ) ) ;
#82 = ORIENTED_EDGE ( 'NONE', *, *, #236, .T. ) ;
#83 = LINE ( 'NONE', #149, #140 ) ;
#84 = AXIS2_PLACEMENT_3D ( 'NONE', #209, #122, #179 ) ;
#85 = DIRECTION ( 'NONE',  ( 0.000000000000000000, 0.000000000000000000, -1.000000000000000000 ) ) ;
#86 = DIRECTION ( 'NONE',  ( -1.000000000000000000, 0.000000000000000000, -0.000000000000000000 ) ) ;
#87 = PLANE ( 'NONE',  #76 ) ;
#88 = LINE ( 'NONE', #170, #67 ) ;
#89 = DIRECTION ( 'NONE',  ( -0.000000000000000000, -1.000000000000000000, -0.000000000000000000 ) ) ;
#90 =( GEOMETRIC_REPRESENTATION_CONTEXT ( 3 ) GLOBAL_UNCERTAINTY_ASSIGNED_CONTEXT ( ( #9 ) ) GLOBAL_UNIT_ASSIGNED_CONTEXT ( ( #191, #106, #129 ) ) REPRESENTATION_CONTEXT ( 'NONE', 'WORKASPACE' ) );
#91 = CARTESIAN_POINT ( 'NONE',  ( 0.000000000000000000, 0.000000000000000000, 0.000000000000000000 ) ) ;
#92 = CARTESIAN_POINT ( 'NONE',  ( -30.00000000000000000, 2.000000000000001776, 25.00000000000000000 ) ) ;
#93 = EDGE_CURVE ( 'NONE', #175, #181, #258, .T. ) ;
#94 = ORIENTED_EDGE ( 'NONE', *, *, #174, .T. ) ;
#95 = ORIENTED_EDGE ( 'NONE', *, *, #115, .F. ) ;
#96 = ADVANCED_FACE ( 'NONE', ( #186 ), #228, .F. ) ;
#97 = STYLED_ITEM ( 'NONE', ( #128 ), #126 ) ;
#98 = ORIENTED_EDGE ( 'NONE', *, *, #74, .F. ) ;
#99 = PRODUCT ( 'BASE00H1795-Profilé cornière Alu 40x30x2, brut', 'BASE00H1795-Profilé cornière Alu 40x30x2, brut', '', ( #68 ) ) ;
#100 = ORIENTED_EDGE ( 'NONE', *, *, #34, .T. ) ;
#101 = EDGE_LOOP ( 'NONE', ( #243, #177, #119, #145 ) ) ;
#102 = ORIENTED_EDGE ( 'NONE', *, *, #69, .F. ) ;
#103 = CARTESIAN_POINT ( 'NONE',  ( -2.000000000000001776, 40.00000000000000000, -25.00000000000000000 ) ) ;
#104 = LINE ( 'NONE', #24, #216 ) ;
#105 = DIRECTION ( 'NONE',  ( -1.000000000000000000, 0.000000000000000000, -0.000000000000000000 ) ) ;
#106 =( NAMED_UNIT ( * ) PLANE_ANGLE_UNIT ( ) SI_UNIT ( $, .RADIAN. ) );
#107 = UNCERTAINTY_MEASURE_WITH_UNIT (LENGTH_MEASURE( 1.000000000000000082E-05 ), #11, 'distance_accuracy_value', 'NONE');
#108 = FACE_OUTER_BOUND ( 'NONE', #101, .T. ) ;
#109 = SURFACE_STYLE_USAGE ( .BOTH. , #38 ) ;
#110 = DIRECTION ( 'NONE',  ( 0.000000000000000000, -0.000000000000000000, -1.000000000000000000 ) ) ;
#111 = DIRECTION ( 'NONE',  ( 1.000000000000000000, 0.000000000000000000, 0.000000000000000000 ) ) ;
#112 = CARTESIAN_POINT ( 'NONE',  ( -30.00000000000000000, 2.000000000000001776, -25.00000000000000000 ) ) ;
#113 = PRESENTATION_LAYER_ASSIGNMENT (  '', '', ( #148 ) ) ;
#114 = FILL_AREA_STYLE ('',( #47 ) ) ;
#115 = EDGE_CURVE ( 'NONE', #118, #225, #167, .T. ) ;
#116 = CARTESIAN_POINT ( 'NONE',  ( -30.00000000000000000, 0.000000000000000000, 25.00000000000000000 ) ) ;
#117 = CARTESIAN_POINT ( 'NONE',  ( -30.00000000000000000, 2.000000000000001776, 25.00000000000000000 ) ) ;
#118 = VERTEX_POINT ( 'NONE', #65 ) ;
#119 = ORIENTED_EDGE ( 'NONE', *, *, #146, .F. ) ;
#120 = ADVANCED_FACE ( 'NONE', ( #151 ), #208, .T. ) ;
#121 = ORIENTED_EDGE ( 'NONE', *, *, #93, .T. ) ;
#122 = DIRECTION ( 'NONE',  ( 1.000000000000000000, 0.000000000000000000, 0.000000000000000000 ) ) ;
#123 = COLOUR_RGB ( '',0.8980392156862745390, 0.9215686274509803377, 0.9294117647058823817 ) ;
#124 = EDGE_CURVE ( 'NONE', #181, #247, #104, .T. ) ;
#125 = FACE_OUTER_BOUND ( 'NONE', #226, .T. ) ;
#126 = MANIFOLD_SOLID_BREP ( 'Boss.-Extru.1', #134 ) ;
#127 = DIRECTION ( 'NONE',  ( 0.000000000000000000, 1.000000000000000000, 0.000000000000000000 ) ) ;
#128 = PRESENTATION_STYLE_ASSIGNMENT (( #109 ) ) ;
#129 =( NAMED_UNIT ( * ) SI_UNIT ( $, .STERADIAN. ) SOLID_ANGLE_UNIT ( ) );
#130 = CARTESIAN_POINT ( 'NONE',  ( 0.000000000000000000, 0.000000000000000000, 25.00000000000000000 ) ) ;
#131 = LINE ( 'NONE', #260, #51 ) ;
#132 = EDGE_CURVE ( 'NONE', #206, #164, #154, .T. ) ;
#133 = PRODUCT_DEFINITION_CONTEXT ( 'detailed design', #152, 'design' ) ;
#134 = CLOSED_SHELL ( 'NONE', ( #188, #155, #56, #250, #96, #242, #48, #120 ) ) ;
#135 = MECHANICAL_DESIGN_GEOMETRIC_PRESENTATION_REPRESENTATION (  '', ( #97 ), #254 ) ;
#136 =( NAMED_UNIT ( * ) PLANE_ANGLE_UNIT ( ) SI_UNIT ( $, .RADIAN. ) );
#137 = EDGE_CURVE ( 'NONE', #59, #225, #190, .T. ) ;
#138 = CARTESIAN_POINT ( 'NONE',  ( 0.000000000000000000, 0.000000000000000000, 25.00000000000000000 ) ) ;
#139 = ORIENTED_EDGE ( 'NONE', *, *, #132, .T. ) ;
#140 = VECTOR ( 'NONE', #253, 1000.000000000000000 ) ;
#141 = ORIENTED_EDGE ( 'NONE', *, *, #205, .T. ) ;
#142 = DIRECTION ( 'NONE',  ( -0.000000000000000000, -1.000000000000000000, -0.000000000000000000 ) ) ;
#143 = PRODUCT_DEFINITION_SHAPE ( 'NONE', 'NONE',  #156 ) ;
#144 = ORIENTED_EDGE ( 'NONE', *, *, #221, .F. ) ;
#145 = ORIENTED_EDGE ( 'NONE', *, *, #198, .T. ) ;
#146 = EDGE_CURVE ( 'NONE', #158, #175, #83, .T. ) ;
#147 = DIRECTION ( 'NONE',  ( 0.000000000000000000, 0.000000000000000000, 1.000000000000000000 ) ) ;
#148 = STYLED_ITEM ( 'NONE', ( #259 ), #169 ) ;
#149 = CARTESIAN_POINT ( 'NONE',  ( 0.000000000000000000, 40.00000000000000000, 25.00000000000000000 ) ) ;
#150 = SURFACE_STYLE_USAGE ( .BOTH. , #22 ) ;
#151 = FACE_OUTER_BOUND ( 'NONE', #81, .T. ) ;
#152 = APPLICATION_CONTEXT ( 'automotive_design' ) ;
#153 = PRESENTATION_LAYER_ASSIGNMENT (  '', '', ( #97 ) ) ;
#154 = LINE ( 'NONE', #10, #219 ) ;
#155 = ADVANCED_FACE ( 'NONE', ( #125 ), #23, .F. ) ;
#156 = PRODUCT_DEFINITION ( 'UNKNOWN', '', #240, #133 ) ;
#157 = LINE ( 'NONE', #92, #44 ) ;
#158 = VERTEX_POINT ( 'NONE', #227 ) ;
#159 = CARTESIAN_POINT ( 'NONE',  ( 0.000000000000000000, 40.00000000000000000, -25.00000000000000000 ) ) ;
#160 = ORIENTED_EDGE ( 'NONE', *, *, #205, .F. ) ;
#161 = ORIENTED_EDGE ( 'NONE', *, *, #201, .T. ) ;
#162 = EDGE_LOOP ( 'NONE', ( #78, #17, #180, #94 ) ) ;
#163 = CARTESIAN_POINT ( 'NONE',  ( 0.000000000000000000, 40.00000000000000000, -25.00000000000000000 ) ) ;
#164 = VERTEX_POINT ( 'NONE', #163 ) ;
#165 = AXIS2_PLACEMENT_3D ( 'NONE', #256, #20, #86 ) ;
#166 = LINE ( 'NONE', #251, #244 ) ;
#167 = LINE ( 'NONE', #232, #61 ) ;
#168 = LINE ( 'NONE', #193, #197 ) ;
#169 = ADVANCED_BREP_SHAPE_REPRESENTATION ( 'BASE00H1795-ProfilÚ corniÞre Alu 40x30x2, brut', ( #126, #202 ), #90 ) ;
#170 = CARTESIAN_POINT ( 'NONE',  ( 0.000000000000000000, 0.000000000000000000, 25.00000000000000000 ) ) ;
#171 = AXIS2_PLACEMENT_3D ( 'NONE', #224, #55, #268 ) ;
#172 = CARTESIAN_POINT ( 'NONE',  ( 0.000000000000000000, 0.000000000000000000, -25.00000000000000000 ) ) ;
#173 = VECTOR ( 'NONE', #27, 1000.000000000000000 ) ;
#174 = EDGE_CURVE ( 'NONE', #267, #118, #166, .T. ) ;
#175 = VERTEX_POINT ( 'NONE', #21 ) ;
#176 = ORIENTED_EDGE ( 'NONE', *, *, #124, .F. ) ;
#177 = ORIENTED_EDGE ( 'NONE', *, *, #93, .F. ) ;
#178 = SHAPE_DEFINITION_REPRESENTATION ( #143, #169 ) ;
#179 = DIRECTION ( 'NONE',  ( 0.000000000000000000, 0.000000000000000000, -1.000000000000000000 ) ) ;
#180 = ORIENTED_EDGE ( 'NONE', *, *, #29, .F. ) ;
#181 = VERTEX_POINT ( 'NONE', #103 ) ;
#182 = CARTESIAN_POINT ( 'NONE',  ( -30.00000000000000000, 0.000000000000000000, 25.00000000000000000 ) ) ;
#183 = FACE_OUTER_BOUND ( 'NONE', #162, .T. ) ;
#184 = APPLICATION_CONTEXT ( 'automotive_design' ) ;
#185 = VECTOR ( 'NONE', #54, 1000.000000000000000 ) ;
#186 = FACE_OUTER_BOUND ( 'NONE', #33, .T. ) ;
#187 = DIRECTION ( 'NONE',  ( -1.000000000000000000, -0.000000000000000000, -0.000000000000000000 ) ) ;
#188 = ADVANCED_FACE ( 'NONE', ( #183 ), #3, .F. ) ;
#189 =( NAMED_UNIT ( * ) SI_UNIT ( $, .STERADIAN. ) SOLID_ANGLE_UNIT ( ) );
#190 = LINE ( 'NONE', #182, #264 ) ;
#191 =( LENGTH_UNIT ( ) NAMED_UNIT ( * ) SI_UNIT ( .MILLI., .METRE. ) );
#192 = VECTOR ( 'NONE', #229, 1000.000000000000000 ) ;
#193 = CARTESIAN_POINT ( 'NONE',  ( -30.00000000000000000, 0.000000000000000000, 25.00000000000000000 ) ) ;
#194 = SURFACE_STYLE_FILL_AREA ( #114 ) ;
#195 = ORIENTED_EDGE ( 'NONE', *, *, #198, .F. ) ;
#196 =( NAMED_UNIT ( * ) SI_UNIT ( $, .STERADIAN. ) SOLID_ANGLE_UNIT ( ) );
#197 = VECTOR ( 'NONE', #257, 1000.000000000000000 ) ;
#198 = EDGE_CURVE ( 'NONE', #158, #164, #19, .T. ) ;
#199 = LINE ( 'NONE', #265, #32 ) ;
#200 = VERTEX_POINT ( 'NONE', #138 ) ;
#201 = EDGE_CURVE ( 'NONE', #225, #206, #233, .T. ) ;
#202 = AXIS2_PLACEMENT_3D ( 'NONE', #91, #238, #111 ) ;
#203 = ORIENTED_EDGE ( 'NONE', *, *, #221, .T. ) ;
#204 = ORIENTED_EDGE ( 'NONE', *, *, #74, .T. ) ;
#205 = EDGE_CURVE ( 'NONE', #247, #118, #71, .T. ) ;
#206 = VERTEX_POINT ( 'NONE', #172 ) ;
#207 = MECHANICAL_DESIGN_GEOMETRIC_PRESENTATION_REPRESENTATION (  '', ( #148 ), #50 ) ;
#208 = PLANE ( 'NONE',  #165 ) ;
#209 = CARTESIAN_POINT ( 'NONE',  ( -30.00000000000000000, 0.000000000000000000, 25.00000000000000000 ) ) ;
#210 = CARTESIAN_POINT ( 'NONE',  ( -30.00000000000000000, 0.000000000000000000, 25.00000000000000000 ) ) ;
#211 = FACE_OUTER_BOUND ( 'NONE', #57, .T. ) ;
#212 = CARTESIAN_POINT ( 'NONE',  ( -2.000000000000001776, 40.00000000000000000, 25.00000000000000000 ) ) ;
#213 = DIRECTION ( 'NONE',  ( -0.000000000000000000, -1.000000000000000000, -0.000000000000000000 ) ) ;
#214 = CARTESIAN_POINT ( 'NONE',  ( -30.00000000000000000, 0.000000000000000000, -25.00000000000000000 ) ) ;
#215 =( LENGTH_UNIT ( ) NAMED_UNIT ( * ) SI_UNIT ( .MILLI., .METRE. ) );
#216 = VECTOR ( 'NONE', #40, 1000.000000000000000 ) ;
#217 = DIRECTION ( 'NONE',  ( 0.000000000000000000, -0.000000000000000000, -1.000000000000000000 ) ) ;
#218 = APPLICATION_PROTOCOL_DEFINITION ( 'draft international standard', 'automotive_design', 1998, #152 ) ;
#219 = VECTOR ( 'NONE', #255, 1000.000000000000000 ) ;
#220 = ORIENTED_EDGE ( 'NONE', *, *, #146, .T. ) ;
#221 = EDGE_CURVE ( 'NONE', #175, #223, #131, .T. ) ;
#222 = FACE_OUTER_BOUND ( 'NONE', #248, .T. ) ;
#223 = VERTEX_POINT ( 'NONE', #239 ) ;
#224 = CARTESIAN_POINT ( 'NONE',  ( -30.00000000000000000, 0.000000000000000000, 25.00000000000000000 ) ) ;
#225 = VERTEX_POINT ( 'NONE', #49 ) ;
#226 = EDGE_LOOP ( 'NONE', ( #161, #98, #263, #79 ) ) ;
#227 = CARTESIAN_POINT ( 'NONE',  ( 0.000000000000000000, 40.00000000000000000, 25.00000000000000000 ) ) ;
#228 = PLANE ( 'NONE',  #73 ) ;
#229 = DIRECTION ( 'NONE',  ( -0.000000000000000000, -0.000000000000000000, -1.000000000000000000 ) ) ;
#230 = PRODUCT_RELATED_PRODUCT_CATEGORY ( 'part', '', ( #99 ) ) ;
#231 = DIRECTION ( 'NONE',  ( -1.000000000000000000, 0.000000000000000000, 0.000000000000000000 ) ) ;
#232 = CARTESIAN_POINT ( 'NONE',  ( -30.00000000000000000, 0.000000000000000000, -25.00000000000000000 ) ) ;
#233 = LINE ( 'NONE', #214, #6 ) ;
#234 = AXIS2_PLACEMENT_3D ( 'NONE', #64, #241, #110 ) ;
#235 = PLANE ( 'NONE',  #14 ) ;
#236 = EDGE_CURVE ( 'NONE', #223, #267, #157, .T. ) ;
#237 = APPLICATION_PROTOCOL_DEFINITION ( 'draft international standard', 'automotive_design', 1998, #184 ) ;
#238 = DIRECTION ( 'NONE',  ( 0.000000000000000000, 0.000000000000000000, 1.000000000000000000 ) ) ;
#239 = CARTESIAN_POINT ( 'NONE',  ( -2.000000000000001776, 2.000000000000001776, 25.00000000000000000 ) ) ;
#240 = PRODUCT_DEFINITION_FORMATION_WITH_SPECIFIED_SOURCE ( 'ANY', '', #99, .NOT_KNOWN. ) ;
#241 = DIRECTION ( 'NONE',  ( 0.000000000000000000, -1.000000000000000000, 0.000000000000000000 ) ) ;
#242 = ADVANCED_FACE ( 'NONE', ( #211 ), #87, .F. ) ;
#243 = ORIENTED_EDGE ( 'NONE', *, *, #37, .T. ) ;
#244 = VECTOR ( 'NONE', #41, 1000.000000000000000 ) ;
#245 = EDGE_CURVE ( 'NONE', #59, #200, #168, .T. ) ;
#246 = EDGE_LOOP ( 'NONE', ( #139, #195, #102, #204 ) ) ;
#247 = VERTEX_POINT ( 'NONE', #43 ) ;
#248 = EDGE_LOOP ( 'NONE', ( #75, #52, #266, #220, #203, #82 ) ) ;
#249 = ORIENTED_EDGE ( 'NONE', *, *, #37, .F. ) ;
#250 = ADVANCED_FACE ( 'NONE', ( #108 ), #12, .F. ) ;
#251 = CARTESIAN_POINT ( 'NONE',  ( -30.00000000000000000, 2.000000000000001776, 25.00000000000000000 ) ) ;
#252 = DIRECTION ( 'NONE',  ( 1.000000000000000000, 0.000000000000000000, 0.000000000000000000 ) ) ;
#253 = DIRECTION ( 'NONE',  ( -1.000000000000000000, 0.000000000000000000, 0.000000000000000000 ) ) ;
#254 =( GEOMETRIC_REPRESENTATION_CONTEXT ( 3 ) GLOBAL_UNCERTAINTY_ASSIGNED_CONTEXT ( ( #107 ) ) GLOBAL_UNIT_ASSIGNED_CONTEXT ( ( #11, #7, #189 ) ) REPRESENTATION_CONTEXT ( 'NONE', 'WORKASPACE' ) );
#255 = DIRECTION ( 'NONE',  ( 0.000000000000000000, 1.000000000000000000, 0.000000000000000000 ) ) ;
#256 = CARTESIAN_POINT ( 'NONE',  ( -30.00000000000000000, 2.000000000000001776, -25.00000000000000000 ) ) ;
#257 = DIRECTION ( 'NONE',  ( 1.000000000000000000, 0.000000000000000000, 0.000000000000000000 ) ) ;
#258 = LINE ( 'NONE', #212, #173 ) ;
#259 = PRESENTATION_STYLE_ASSIGNMENT (( #150 ) ) ;
#260 = CARTESIAN_POINT ( 'NONE',  ( -2.000000000000001776, 2.000000000000001776, 25.00000000000000000 ) ) ;
#261 = CARTESIAN_POINT ( 'NONE',  ( -30.00000000000000000, 2.000000000000001776, 25.00000000000000000 ) ) ;
#262 = ORIENTED_EDGE ( 'NONE', *, *, #236, .F. ) ;
#263 = ORIENTED_EDGE ( 'NONE', *, *, #245, .F. ) ;
#264 = VECTOR ( 'NONE', #2, 1000.000000000000000 ) ;
#265 = CARTESIAN_POINT ( 'NONE',  ( -2.000000000000001776, 2.000000000000001776, 25.00000000000000000 ) ) ;
#266 = ORIENTED_EDGE ( 'NONE', *, *, #69, .T. ) ;
#267 = VERTEX_POINT ( 'NONE', #70 ) ;
#268 = DIRECTION ( 'NONE',  ( 0.000000000000000000, -0.000000000000000000, 1.000000000000000000 ) ) ;
ENDSEC;
END-ISO-10303-21;
