ISO-10303-21;
HEADER;
FILE_DESCRIPTION (( 'STEP AP214' ),
    '1' );
FILE_NAME ('BASE00H1801-Profilé cornière Alu 50x30x2, Brut.step',
    '2023-03-24T09:33:51',
    ( 'Altae' ),
    ( '' ),
    'SwSTEP 2.0',
    'SolidWorks 2021',
    '' );
FILE_SCHEMA (( 'AUTOMOTIVE_DESIGN' ));
ENDSEC;

DATA;
#1 = EDGE_LOOP ( 'NONE', ( #169, #167, #147, #211 ) ) ;
#2 = VERTEX_POINT ( 'NONE', #9 ) ;
#3 = ORIENTED_EDGE ( 'NONE', *, *, #222, .F. ) ;
#4 = ORIENTED_EDGE ( 'NONE', *, *, #90, .T. ) ;
#5 = SURFACE_STYLE_FILL_AREA ( #239 ) ;
#6 =( GEOMETRIC_REPRESENTATION_CONTEXT ( 3 ) GLOBAL_UNCERTAINTY_ASSIGNED_CONTEXT ( ( #109 ) ) GLOBAL_UNIT_ASSIGNED_CONTEXT ( ( #102, #18, #205 ) ) REPRESENTATION_CONTEXT ( 'NONE', 'WORKASPACE' ) );
#7 = PLANE ( 'NONE',  #22 ) ;
#8 =( NAMED_UNIT ( * ) SI_UNIT ( $, .STERADIAN. ) SOLID_ANGLE_UNIT ( ) );
#9 = CARTESIAN_POINT ( 'NONE',  ( -30.00000000000000000, 2.000000000000001776, -25.00000000000000000 ) ) ;
#10 = ADVANCED_FACE ( 'NONE', ( #202 ), #7, .F. ) ;
#11 = CARTESIAN_POINT ( 'NONE',  ( 0.000000000000000000, 0.000000000000000000, 0.000000000000000000 ) ) ;
#12 = PLANE ( 'NONE',  #48 ) ;
#13 = CARTESIAN_POINT ( 'NONE',  ( 0.000000000000000000, 0.000000000000000000, 25.00000000000000000 ) ) ;
#14 = PLANE ( 'NONE',  #125 ) ;
#15 = LINE ( 'NONE', #117, #243 ) ;
#16 = DIRECTION ( 'NONE',  ( 0.000000000000000000, -0.000000000000000000, 1.000000000000000000 ) ) ;
#17 = VECTOR ( 'NONE', #227, 1000.000000000000000 ) ;
#18 =( NAMED_UNIT ( * ) PLANE_ANGLE_UNIT ( ) SI_UNIT ( $, .RADIAN. ) );
#19 = CARTESIAN_POINT ( 'NONE',  ( -2.000000000000001776, 2.000000000000001776, -25.00000000000000000 ) ) ;
#20 = CARTESIAN_POINT ( 'NONE',  ( -2.000000000000001776, 2.000000000000001776, -25.00000000000000000 ) ) ;
#21 = ORIENTED_EDGE ( 'NONE', *, *, #135, .T. ) ;
#22 = AXIS2_PLACEMENT_3D ( 'NONE', #257, #256, #78 ) ;
#23 = EDGE_LOOP ( 'NONE', ( #212, #47, #70, #217 ) ) ;
#24 = ORIENTED_EDGE ( 'NONE', *, *, #79, .T. ) ;
#25 = VERTEX_POINT ( 'NONE', #94 ) ;
#26 = EDGE_CURVE ( 'NONE', #190, #45, #74, .T. ) ;
#27 = SURFACE_STYLE_FILL_AREA ( #215 ) ;
#28 = CARTESIAN_POINT ( 'NONE',  ( 0.000000000000000000, 0.000000000000000000, -25.00000000000000000 ) ) ;
#29 = VECTOR ( 'NONE', #65, 1000.000000000000000 ) ;
#30 = DIRECTION ( 'NONE',  ( 1.000000000000000000, 0.000000000000000000, 0.000000000000000000 ) ) ;
#31 = EDGE_CURVE ( 'NONE', #45, #251, #154, .T. ) ;
#32 = APPLICATION_PROTOCOL_DEFINITION ( 'draft international standard', 'automotive_design', 1998, #72 ) ;
#33 = CARTESIAN_POINT ( 'NONE',  ( 0.000000000000000000, 50.00000000000000000, 25.00000000000000000 ) ) ;
#34 = CARTESIAN_POINT ( 'NONE',  ( 0.000000000000000000, 0.000000000000000000, 25.00000000000000000 ) ) ;
#35 = AXIS2_PLACEMENT_3D ( 'NONE', #11, #111, #113 ) ;
#36 = DIRECTION ( 'NONE',  ( 0.000000000000000000, 0.000000000000000000, -1.000000000000000000 ) ) ;
#37 = CARTESIAN_POINT ( 'NONE',  ( -30.00000000000000000, 0.000000000000000000, 25.00000000000000000 ) ) ;
#38 = DIRECTION ( 'NONE',  ( 0.000000000000000000, -0.000000000000000000, -1.000000000000000000 ) ) ;
#39 = CLOSED_SHELL ( 'NONE', ( #130, #241, #40, #170, #143, #189, #10, #244 ) ) ;
#40 = ADVANCED_FACE ( 'NONE', ( #136 ), #12, .F. ) ;
#41 = CARTESIAN_POINT ( 'NONE',  ( -2.000000000000001776, 2.000000000000001776, 25.00000000000000000 ) ) ;
#42 = AXIS2_PLACEMENT_3D ( 'NONE', #226, #98, #245 ) ;
#43 = PRESENTATION_LAYER_ASSIGNMENT (  '', '', ( #137 ) ) ;
#44 = DIRECTION ( 'NONE',  ( -1.000000000000000000, 0.000000000000000000, -0.000000000000000000 ) ) ;
#45 = VERTEX_POINT ( 'NONE', #56 ) ;
#46 = FILL_AREA_STYLE_COLOUR ( '', #223 ) ;
#47 = ORIENTED_EDGE ( 'NONE', *, *, #213, .F. ) ;
#48 = AXIS2_PLACEMENT_3D ( 'NONE', #95, #238, #152 ) ;
#49 = CARTESIAN_POINT ( 'NONE',  ( -2.000000000000001776, 50.00000000000000000, 25.00000000000000000 ) ) ;
#50 = EDGE_LOOP ( 'NONE', ( #168, #165, #232, #240, #3, #188 ) ) ;
#51 = CARTESIAN_POINT ( 'NONE',  ( -30.00000000000000000, 0.000000000000000000, 25.00000000000000000 ) ) ;
#52 = PRODUCT_DEFINITION ( 'UNKNOWN', '', #209, #177 ) ;
#53 = CARTESIAN_POINT ( 'NONE',  ( -30.00000000000000000, 0.000000000000000000, -25.00000000000000000 ) ) ;
#54 =( GEOMETRIC_REPRESENTATION_CONTEXT ( 3 ) GLOBAL_UNCERTAINTY_ASSIGNED_CONTEXT ( ( #196 ) ) GLOBAL_UNIT_ASSIGNED_CONTEXT ( ( #153, #220, #8 ) ) REPRESENTATION_CONTEXT ( 'NONE', 'WORKASPACE' ) );
#55 = PRESENTATION_STYLE_ASSIGNMENT (( #201 ) ) ;
#56 = CARTESIAN_POINT ( 'NONE',  ( 0.000000000000000000, 50.00000000000000000, 25.00000000000000000 ) ) ;
#57 = PLANE ( 'NONE',  #91 ) ;
#58 = CARTESIAN_POINT ( 'NONE',  ( 0.000000000000000000, 50.00000000000000000, -25.00000000000000000 ) ) ;
#59 = PLANE ( 'NONE',  #42 ) ;
#60 = PLANE ( 'NONE',  #237 ) ;
#61 = LINE ( 'NONE', #19, #252 ) ;
#62 = FACE_OUTER_BOUND ( 'NONE', #1, .T. ) ;
#63 = CARTESIAN_POINT ( 'NONE',  ( -30.00000000000000000, 2.000000000000001776, -25.00000000000000000 ) ) ;
#64 = CARTESIAN_POINT ( 'NONE',  ( -2.000000000000001776, 50.00000000000000000, -25.00000000000000000 ) ) ;
#65 = DIRECTION ( 'NONE',  ( 0.000000000000000000, 1.000000000000000000, 0.000000000000000000 ) ) ;
#66 = ORIENTED_EDGE ( 'NONE', *, *, #135, .F. ) ;
#67 = AXIS2_PLACEMENT_3D ( 'NONE', #63, #107, #44 ) ;
#68 =( LENGTH_UNIT ( ) NAMED_UNIT ( * ) SI_UNIT ( .MILLI., .METRE. ) );
#69 = ORIENTED_EDGE ( 'NONE', *, *, #79, .F. ) ;
#70 = ORIENTED_EDGE ( 'NONE', *, *, #88, .F. ) ;
#71 = DIRECTION ( 'NONE',  ( -0.000000000000000000, -0.000000000000000000, -1.000000000000000000 ) ) ;
#72 = APPLICATION_CONTEXT ( 'automotive_design' ) ;
#73 = EDGE_CURVE ( 'NONE', #129, #116, #134, .T. ) ;
#74 = LINE ( 'NONE', #13, #248 ) ;
#75 = CARTESIAN_POINT ( 'NONE',  ( 0.000000000000000000, 50.00000000000000000, 25.00000000000000000 ) ) ;
#76 = PRESENTATION_LAYER_ASSIGNMENT (  '', '', ( #208 ) ) ;
#77 = DIRECTION ( 'NONE',  ( -0.000000000000000000, -1.000000000000000000, -0.000000000000000000 ) ) ;
#78 = DIRECTION ( 'NONE',  ( -1.000000000000000000, 0.000000000000000000, -0.000000000000000000 ) ) ;
#79 = EDGE_CURVE ( 'NONE', #45, #25, #219, .T. ) ;
#80 = VECTOR ( 'NONE', #30, 1000.000000000000000 ) ;
#81 = CARTESIAN_POINT ( 'NONE',  ( -2.000000000000001776, 2.000000000000001776, 25.00000000000000000 ) ) ;
#82 = CARTESIAN_POINT ( 'NONE',  ( -30.00000000000000000, 2.000000000000001776, 25.00000000000000000 ) ) ;
#83 = CARTESIAN_POINT ( 'NONE',  ( -2.000000000000001776, 50.00000000000000000, 25.00000000000000000 ) ) ;
#84 = VERTEX_POINT ( 'NONE', #51 ) ;
#85 = ADVANCED_BREP_SHAPE_REPRESENTATION ( 'BASE00H1801-ProfilÚ corniÞre Alu 50x30x2, Brut', ( #128, #35 ), #265 ) ;
#86 = ORIENTED_EDGE ( 'NONE', *, *, #194, .F. ) ;
#87 = ORIENTED_EDGE ( 'NONE', *, *, #198, .T. ) ;
#88 = EDGE_CURVE ( 'NONE', #84, #190, #242, .T. ) ;
#89 = DIRECTION ( 'NONE',  ( 1.000000000000000000, 0.000000000000000000, 0.000000000000000000 ) ) ;
#90 = EDGE_CURVE ( 'NONE', #2, #129, #176, .T. ) ;
#91 = AXIS2_PLACEMENT_3D ( 'NONE', #161, #139, #36 ) ;
#92 = MECHANICAL_DESIGN_GEOMETRIC_PRESENTATION_REPRESENTATION (  '', ( #137 ), #54 ) ;
#93 = LINE ( 'NONE', #131, #229 ) ;
#94 = CARTESIAN_POINT ( 'NONE',  ( 0.000000000000000000, 50.00000000000000000, -25.00000000000000000 ) ) ;
#95 = CARTESIAN_POINT ( 'NONE',  ( 0.000000000000000000, 0.000000000000000000, 25.00000000000000000 ) ) ;
#96 = CARTESIAN_POINT ( 'NONE',  ( -30.00000000000000000, 0.000000000000000000, -25.00000000000000000 ) ) ;
#97 = DIRECTION ( 'NONE',  ( -0.000000000000000000, -0.000000000000000000, -1.000000000000000000 ) ) ;
#98 = DIRECTION ( 'NONE',  ( 0.000000000000000000, -1.000000000000000000, 0.000000000000000000 ) ) ;
#99 = DIRECTION ( 'NONE',  ( -0.000000000000000000, -1.000000000000000000, -0.000000000000000000 ) ) ;
#100 = CARTESIAN_POINT ( 'NONE',  ( -30.00000000000000000, 2.000000000000001776, 25.00000000000000000 ) ) ;
#101 = PRODUCT_DEFINITION_SHAPE ( 'NONE', 'NONE',  #52 ) ;
#102 =( LENGTH_UNIT ( ) NAMED_UNIT ( * ) SI_UNIT ( .MILLI., .METRE. ) );
#103 = LINE ( 'NONE', #100, #158 ) ;
#104 = UNCERTAINTY_MEASURE_WITH_UNIT (LENGTH_MEASURE( 1.000000000000000082E-05 ), #68, 'distance_accuracy_value', 'NONE');
#105 = FACE_OUTER_BOUND ( 'NONE', #23, .T. ) ;
#106 = EDGE_CURVE ( 'NONE', #236, #2, #93, .T. ) ;
#107 = DIRECTION ( 'NONE',  ( 0.000000000000000000, 0.000000000000000000, -1.000000000000000000 ) ) ;
#108 = ORIENTED_EDGE ( 'NONE', *, *, #231, .T. ) ;
#109 = UNCERTAINTY_MEASURE_WITH_UNIT (LENGTH_MEASURE( 1.000000000000000082E-05 ), #102, 'distance_accuracy_value', 'NONE');
#110 = ORIENTED_EDGE ( 'NONE', *, *, #213, .T. ) ;
#111 = DIRECTION ( 'NONE',  ( 0.000000000000000000, 0.000000000000000000, 1.000000000000000000 ) ) ;
#112 = CARTESIAN_POINT ( 'NONE',  ( -30.00000000000000000, 0.000000000000000000, 25.00000000000000000 ) ) ;
#113 = DIRECTION ( 'NONE',  ( 1.000000000000000000, 0.000000000000000000, 0.000000000000000000 ) ) ;
#114 = LINE ( 'NONE', #58, #192 ) ;
#115 = VECTOR ( 'NONE', #97, 1000.000000000000000 ) ;
#116 = VERTEX_POINT ( 'NONE', #28 ) ;
#117 = CARTESIAN_POINT ( 'NONE',  ( -30.00000000000000000, 0.000000000000000000, 25.00000000000000000 ) ) ;
#118 = FACE_OUTER_BOUND ( 'NONE', #200, .T. ) ;
#119 = EDGE_CURVE ( 'NONE', #25, #150, #114, .T. ) ;
#120 = CARTESIAN_POINT ( 'NONE',  ( -30.00000000000000000, 0.000000000000000000, -25.00000000000000000 ) ) ;
#121 = APPLICATION_CONTEXT ( 'automotive_design' ) ;
#122 = CARTESIAN_POINT ( 'NONE',  ( -2.000000000000001776, 2.000000000000001776, 25.00000000000000000 ) ) ;
#123 = PRODUCT ( 'BASE00H1801-Profilé cornière Alu 50x30x2, Brut', 'BASE00H1801-Profilé cornière Alu 50x30x2, Brut', '', ( #175 ) ) ;
#124 = PRESENTATION_STYLE_ASSIGNMENT (( #157 ) ) ;
#125 = AXIS2_PLACEMENT_3D ( 'NONE', #122, #267, #182 ) ;
#126 = ORIENTED_EDGE ( 'NONE', *, *, #88, .T. ) ;
#127 = VECTOR ( 'NONE', #156, 1000.000000000000000 ) ;
#128 = MANIFOLD_SOLID_BREP ( 'Boss.-Extru.1', #39 ) ;
#129 = VERTEX_POINT ( 'NONE', #120 ) ;
#130 = ADVANCED_FACE ( 'NONE', ( #206 ), #57, .F. ) ;
#131 = CARTESIAN_POINT ( 'NONE',  ( -30.00000000000000000, 2.000000000000001776, -25.00000000000000000 ) ) ;
#132 = DIRECTION ( 'NONE',  ( -0.000000000000000000, -0.000000000000000000, -1.000000000000000000 ) ) ;
#133 = LINE ( 'NONE', #160, #29 ) ;
#134 = LINE ( 'NONE', #53, #151 ) ;
#135 = EDGE_CURVE ( 'NONE', #260, #84, #15, .T. ) ;
#136 = FACE_OUTER_BOUND ( 'NONE', #233, .T. ) ;
#137 = STYLED_ITEM ( 'NONE', ( #55 ), #85 ) ;
#138 = EDGE_CURVE ( 'NONE', #148, #260, #103, .T. ) ;
#139 = DIRECTION ( 'NONE',  ( 1.000000000000000000, 0.000000000000000000, 0.000000000000000000 ) ) ;
#140 = CARTESIAN_POINT ( 'NONE',  ( -2.000000000000001776, 2.000000000000001776, 25.00000000000000000 ) ) ;
#141 = DIRECTION ( 'NONE',  ( 0.000000000000000000, -1.000000000000000000, 0.000000000000000000 ) ) ;
#142 = DIRECTION ( 'NONE',  ( -0.000000000000000000, -1.000000000000000000, -0.000000000000000000 ) ) ;
#143 = ADVANCED_FACE ( 'NONE', ( #118 ), #14, .F. ) ;
#144 = CARTESIAN_POINT ( 'NONE',  ( -30.00000000000000000, 0.000000000000000000, 25.00000000000000000 ) ) ;
#145 = VECTOR ( 'NONE', #162, 1000.000000000000000 ) ;
#146 =( NAMED_UNIT ( * ) PLANE_ANGLE_UNIT ( ) SI_UNIT ( $, .RADIAN. ) );
#147 = ORIENTED_EDGE ( 'NONE', *, *, #138, .F. ) ;
#148 = VERTEX_POINT ( 'NONE', #140 ) ;
#149 = SHAPE_DEFINITION_REPRESENTATION ( #101, #85 ) ;
#150 = VERTEX_POINT ( 'NONE', #64 ) ;
#151 = VECTOR ( 'NONE', #89, 1000.000000000000000 ) ;
#152 = DIRECTION ( 'NONE',  ( 0.000000000000000000, 0.000000000000000000, 1.000000000000000000 ) ) ;
#153 =( LENGTH_UNIT ( ) NAMED_UNIT ( * ) SI_UNIT ( .MILLI., .METRE. ) );
#154 = LINE ( 'NONE', #75, #127 ) ;
#155 = DIRECTION ( 'NONE',  ( -1.000000000000000000, 0.000000000000000000, 0.000000000000000000 ) ) ;
#156 = DIRECTION ( 'NONE',  ( -1.000000000000000000, 0.000000000000000000, 0.000000000000000000 ) ) ;
#157 = SURFACE_STYLE_USAGE ( .BOTH. , #261 ) ;
#158 = VECTOR ( 'NONE', #247, 1000.000000000000000 ) ;
#159 = DIRECTION ( 'NONE',  ( -0.000000000000000000, -1.000000000000000000, -0.000000000000000000 ) ) ;
#160 = CARTESIAN_POINT ( 'NONE',  ( 0.000000000000000000, 0.000000000000000000, -25.00000000000000000 ) ) ;
#161 = CARTESIAN_POINT ( 'NONE',  ( -30.00000000000000000, 0.000000000000000000, 25.00000000000000000 ) ) ;
#162 = DIRECTION ( 'NONE',  ( -0.000000000000000000, -0.000000000000000000, -1.000000000000000000 ) ) ;
#163 = ORIENTED_EDGE ( 'NONE', *, *, #26, .T. ) ;
#164 = EDGE_CURVE ( 'NONE', #150, #236, #61, .T. ) ;
#165 = ORIENTED_EDGE ( 'NONE', *, *, #106, .F. ) ;
#166 = VECTOR ( 'NONE', #132, 1000.000000000000000 ) ;
#167 = ORIENTED_EDGE ( 'NONE', *, *, #184, .F. ) ;
#168 = ORIENTED_EDGE ( 'NONE', *, *, #90, .F. ) ;
#169 = ORIENTED_EDGE ( 'NONE', *, *, #106, .T. ) ;
#170 = ADVANCED_FACE ( 'NONE', ( #266 ), #59, .F. ) ;
#171 = ORIENTED_EDGE ( 'NONE', *, *, #31, .T. ) ;
#172 = COLOUR_RGB ( '',0.8980392156862745390, 0.9215686274509803377, 0.9294117647058823817 ) ;
#173 = EDGE_LOOP ( 'NONE', ( #255, #197, #195, #24 ) ) ;
#174 = DIRECTION ( 'NONE',  ( 0.000000000000000000, 1.000000000000000000, 0.000000000000000000 ) ) ;
#175 = PRODUCT_CONTEXT ( 'NONE', #121, 'mechanical' ) ;
#176 = LINE ( 'NONE', #96, #218 ) ;
#177 = PRODUCT_DEFINITION_CONTEXT ( 'detailed design', #72, 'design' ) ;
#178 = CARTESIAN_POINT ( 'NONE',  ( 0.000000000000000000, 0.000000000000000000, 25.00000000000000000 ) ) ;
#179 = LINE ( 'NONE', #185, #115 ) ;
#180 = FACE_OUTER_BOUND ( 'NONE', #50, .T. ) ;
#181 = VECTOR ( 'NONE', #99, 1000.000000000000000 ) ;
#182 = DIRECTION ( 'NONE',  ( 0.000000000000000000, 0.000000000000000000, -1.000000000000000000 ) ) ;
#183 = LINE ( 'NONE', #144, #17 ) ;
#184 = EDGE_CURVE ( 'NONE', #260, #2, #179, .T. ) ;
#185 = CARTESIAN_POINT ( 'NONE',  ( -30.00000000000000000, 2.000000000000001776, 25.00000000000000000 ) ) ;
#186 = DIRECTION ( 'NONE',  ( -0.000000000000000000, -0.000000000000000000, -1.000000000000000000 ) ) ;
#187 = VECTOR ( 'NONE', #71, 1000.000000000000000 ) ;
#188 = ORIENTED_EDGE ( 'NONE', *, *, #73, .F. ) ;
#189 = ADVANCED_FACE ( 'NONE', ( #62 ), #263, .F. ) ;
#190 = VERTEX_POINT ( 'NONE', #34 ) ;
#191 = ORIENTED_EDGE ( 'NONE', *, *, #224, .F. ) ;
#192 = VECTOR ( 'NONE', #155, 1000.000000000000000 ) ;
#193 = EDGE_LOOP ( 'NONE', ( #4, #191, #66, #250 ) ) ;
#194 = EDGE_CURVE ( 'NONE', #148, #236, #210, .T. ) ;
#195 = ORIENTED_EDGE ( 'NONE', *, *, #31, .F. ) ;
#196 = UNCERTAINTY_MEASURE_WITH_UNIT (LENGTH_MEASURE( 1.000000000000000082E-05 ), #153, 'distance_accuracy_value', 'NONE');
#197 = ORIENTED_EDGE ( 'NONE', *, *, #198, .F. ) ;
#198 = EDGE_CURVE ( 'NONE', #251, #150, #268, .T. ) ;
#199 = EDGE_LOOP ( 'NONE', ( #21, #126, #163, #171, #108, #253 ) ) ;
#200 = EDGE_LOOP ( 'NONE', ( #216, #86, #254, #87 ) ) ;
#201 = SURFACE_STYLE_USAGE ( .BOTH. , #258 ) ;
#202 = FACE_OUTER_BOUND ( 'NONE', #199, .T. ) ;
#203 = MECHANICAL_DESIGN_GEOMETRIC_PRESENTATION_REPRESENTATION (  '', ( #208 ), #6 ) ;
#204 = LINE ( 'NONE', #178, #166 ) ;
#205 =( NAMED_UNIT ( * ) SI_UNIT ( $, .STERADIAN. ) SOLID_ANGLE_UNIT ( ) );
#206 = FACE_OUTER_BOUND ( 'NONE', #193, .T. ) ;
#207 = DIRECTION ( 'NONE',  ( 0.000000000000000000, 1.000000000000000000, 0.000000000000000000 ) ) ;
#208 = STYLED_ITEM ( 'NONE', ( #124 ), #128 ) ;
#209 = PRODUCT_DEFINITION_FORMATION_WITH_SPECIFIED_SOURCE ( 'ANY', '', #123, .NOT_KNOWN. ) ;
#210 = LINE ( 'NONE', #81, #225 ) ;
#211 = ORIENTED_EDGE ( 'NONE', *, *, #194, .T. ) ;
#212 = ORIENTED_EDGE ( 'NONE', *, *, #73, .T. ) ;
#213 = EDGE_CURVE ( 'NONE', #190, #116, #204, .T. ) ;
#214 = APPLICATION_PROTOCOL_DEFINITION ( 'draft international standard', 'automotive_design', 1998, #121 ) ;
#215 = FILL_AREA_STYLE ('',( #221 ) ) ;
#216 = ORIENTED_EDGE ( 'NONE', *, *, #164, .T. ) ;
#217 = ORIENTED_EDGE ( 'NONE', *, *, #224, .T. ) ;
#218 = VECTOR ( 'NONE', #77, 1000.000000000000000 ) ;
#219 = LINE ( 'NONE', #33, #187 ) ;
#220 =( NAMED_UNIT ( * ) PLANE_ANGLE_UNIT ( ) SI_UNIT ( $, .RADIAN. ) );
#221 = FILL_AREA_STYLE_COLOUR ( '', #172 ) ;
#222 = EDGE_CURVE ( 'NONE', #116, #25, #133, .T. ) ;
#223 = COLOUR_RGB ( '',0.8980392156862745390, 0.9215686274509803377, 0.9294117647058823817 ) ;
#224 = EDGE_CURVE ( 'NONE', #84, #129, #183, .T. ) ;
#225 = VECTOR ( 'NONE', #186, 1000.000000000000000 ) ;
#226 = CARTESIAN_POINT ( 'NONE',  ( 0.000000000000000000, 50.00000000000000000, 25.00000000000000000 ) ) ;
#227 = DIRECTION ( 'NONE',  ( -0.000000000000000000, -0.000000000000000000, -1.000000000000000000 ) ) ;
#228 =( NAMED_UNIT ( * ) SI_UNIT ( $, .STERADIAN. ) SOLID_ANGLE_UNIT ( ) );
#229 = VECTOR ( 'NONE', #259, 1000.000000000000000 ) ;
#230 = ORIENTED_EDGE ( 'NONE', *, *, #222, .T. ) ;
#231 = EDGE_CURVE ( 'NONE', #251, #148, #262, .T. ) ;
#232 = ORIENTED_EDGE ( 'NONE', *, *, #164, .F. ) ;
#233 = EDGE_LOOP ( 'NONE', ( #230, #69, #235, #110 ) ) ;
#234 = PRODUCT_RELATED_PRODUCT_CATEGORY ( 'part', '', ( #123 ) ) ;
#235 = ORIENTED_EDGE ( 'NONE', *, *, #26, .F. ) ;
#236 = VERTEX_POINT ( 'NONE', #20 ) ;
#237 = AXIS2_PLACEMENT_3D ( 'NONE', #37, #207, #16 ) ;
#238 = DIRECTION ( 'NONE',  ( -1.000000000000000000, 0.000000000000000000, 0.000000000000000000 ) ) ;
#239 = FILL_AREA_STYLE ('',( #46 ) ) ;
#240 = ORIENTED_EDGE ( 'NONE', *, *, #119, .F. ) ;
#241 = ADVANCED_FACE ( 'NONE', ( #105 ), #60, .F. ) ;
#242 = LINE ( 'NONE', #112, #80 ) ;
#243 = VECTOR ( 'NONE', #159, 1000.000000000000000 ) ;
#244 = ADVANCED_FACE ( 'NONE', ( #180 ), #246, .T. ) ;
#245 = DIRECTION ( 'NONE',  ( 0.000000000000000000, -0.000000000000000000, -1.000000000000000000 ) ) ;
#246 = PLANE ( 'NONE',  #67 ) ;
#247 = DIRECTION ( 'NONE',  ( -1.000000000000000000, -0.000000000000000000, -0.000000000000000000 ) ) ;
#248 = VECTOR ( 'NONE', #174, 1000.000000000000000 ) ;
#249 = CARTESIAN_POINT ( 'NONE',  ( -30.00000000000000000, 2.000000000000001776, 25.00000000000000000 ) ) ;
#250 = ORIENTED_EDGE ( 'NONE', *, *, #184, .T. ) ;
#251 = VERTEX_POINT ( 'NONE', #49 ) ;
#252 = VECTOR ( 'NONE', #142, 1000.000000000000000 ) ;
#253 = ORIENTED_EDGE ( 'NONE', *, *, #138, .T. ) ;
#254 = ORIENTED_EDGE ( 'NONE', *, *, #231, .F. ) ;
#255 = ORIENTED_EDGE ( 'NONE', *, *, #119, .T. ) ;
#256 = DIRECTION ( 'NONE',  ( 0.000000000000000000, 0.000000000000000000, -1.000000000000000000 ) ) ;
#257 = CARTESIAN_POINT ( 'NONE',  ( -30.00000000000000000, 2.000000000000001776, 25.00000000000000000 ) ) ;
#258 = SURFACE_SIDE_STYLE ('',( #5 ) ) ;
#259 = DIRECTION ( 'NONE',  ( -1.000000000000000000, -0.000000000000000000, -0.000000000000000000 ) ) ;
#260 = VERTEX_POINT ( 'NONE', #249 ) ;
#261 = SURFACE_SIDE_STYLE ('',( #27 ) ) ;
#262 = LINE ( 'NONE', #41, #181 ) ;
#263 = PLANE ( 'NONE',  #264 ) ;
#264 = AXIS2_PLACEMENT_3D ( 'NONE', #82, #141, #38 ) ;
#265 =( GEOMETRIC_REPRESENTATION_CONTEXT ( 3 ) GLOBAL_UNCERTAINTY_ASSIGNED_CONTEXT ( ( #104 ) ) GLOBAL_UNIT_ASSIGNED_CONTEXT ( ( #68, #146, #228 ) ) REPRESENTATION_CONTEXT ( 'NONE', 'WORKASPACE' ) );
#266 = FACE_OUTER_BOUND ( 'NONE', #173, .T. ) ;
#267 = DIRECTION ( 'NONE',  ( 1.000000000000000000, 0.000000000000000000, 0.000000000000000000 ) ) ;
#268 = LINE ( 'NONE', #83, #145 ) ;
ENDSEC;
END-ISO-10303-21;
