ISO-10303-21;
HEADER;
FILE_DESCRIPTION (( 'STEP AP214' ),
    '1' );
FILE_NAME ('BASE00H1811-Profilé cornière Alu 60x60x6, brut.step',
    '2023-03-24T09:33:56',
    ( 'Altae' ),
    ( '' ),
    'SwSTEP 2.0',
    'SolidWorks 2021',
    '' );
FILE_SCHEMA (( 'AUTOMOTIVE_DESIGN' ));
ENDSEC;

DATA;
#1 = EDGE_CURVE ( 'NONE', #138, #212, #233, .T. ) ;
#2 = ORIENTED_EDGE ( 'NONE', *, *, #7, .T. ) ;
#3 = ORIENTED_EDGE ( 'NONE', *, *, #227, .T. ) ;
#4 = PRESENTATION_LAYER_ASSIGNMENT (  '', '', ( #39 ) ) ;
#5 = LINE ( 'NONE', #95, #253 ) ;
#6 = LINE ( 'NONE', #25, #222 ) ;
#7 = EDGE_CURVE ( 'NONE', #149, #142, #107, .T. ) ;
#8 = FILL_AREA_STYLE ('',( #91 ) ) ;
#9 = AXIS2_PLACEMENT_3D ( 'NONE', #237, #46, #215 ) ;
#10 = ADVANCED_FACE ( 'NONE', ( #111 ), #172, .F. ) ;
#11 = DIRECTION ( 'NONE',  ( -6.195440985631452852E-17, -1.000000000000000000, -0.000000000000000000 ) ) ;
#12 = VECTOR ( 'NONE', #118, 1000.000000000000000 ) ;
#13 = DIRECTION ( 'NONE',  ( -0.000000000000000000, -0.000000000000000000, -1.000000000000000000 ) ) ;
#14 = DIRECTION ( 'NONE',  ( -1.000000000000000000, 0.000000000000000000, -0.000000000000000000 ) ) ;
#15 =( NAMED_UNIT ( * ) PLANE_ANGLE_UNIT ( ) SI_UNIT ( $, .RADIAN. ) );
#16 =( GEOMETRIC_REPRESENTATION_CONTEXT ( 3 ) GLOBAL_UNCERTAINTY_ASSIGNED_CONTEXT ( ( #67 ) ) GLOBAL_UNIT_ASSIGNED_CONTEXT ( ( #226, #251, #21 ) ) REPRESENTATION_CONTEXT ( 'NONE', 'WORKASPACE' ) );
#17 = EDGE_CURVE ( 'NONE', #128, #104, #234, .T. ) ;
#18 = ORIENTED_EDGE ( 'NONE', *, *, #17, .T. ) ;
#19 = EDGE_LOOP ( 'NONE', ( #166, #229, #87, #185 ) ) ;
#20 = ORIENTED_EDGE ( 'NONE', *, *, #266, .T. ) ;
#21 =( NAMED_UNIT ( * ) SI_UNIT ( $, .STERADIAN. ) SOLID_ANGLE_UNIT ( ) );
#22 = ORIENTED_EDGE ( 'NONE', *, *, #98, .T. ) ;
#23 = CARTESIAN_POINT ( 'NONE',  ( -60.00000000000000000, -7.347880794884118356E-15, 25.00000000000000000 ) ) ;
#24 = FACE_OUTER_BOUND ( 'NONE', #181, .T. ) ;
#25 = CARTESIAN_POINT ( 'NONE',  ( -60.00000000000000000, -7.347880794884118356E-15, 25.00000000000000000 ) ) ;
#26 = VECTOR ( 'NONE', #11, 1000.000000000000000 ) ;
#27 = SURFACE_STYLE_FILL_AREA ( #153 ) ;
#28 = DIRECTION ( 'NONE',  ( 0.000000000000000000, 0.000000000000000000, -1.000000000000000000 ) ) ;
#29 = CARTESIAN_POINT ( 'NONE',  ( 0.000000000000000000, 0.000000000000000000, 25.00000000000000000 ) ) ;
#30 = ORIENTED_EDGE ( 'NONE', *, *, #211, .T. ) ;
#31 = COLOUR_RGB ( '',0.8980392156862745390, 0.9215686274509803377, 0.9294117647058823817 ) ;
#32 = DIRECTION ( 'NONE',  ( 0.000000000000000000, 0.000000000000000000, -1.000000000000000000 ) ) ;
#33 = SURFACE_SIDE_STYLE ('',( #76 ) ) ;
#34 = CARTESIAN_POINT ( 'NONE',  ( -4.000000000000003553, 3.999999999999993339, 25.00000000000000000 ) ) ;
#35 = CARTESIAN_POINT ( 'NONE',  ( -4.000000000000000000, 60.00000000000000000, 25.00000000000000000 ) ) ;
#36 = PRODUCT_DEFINITION ( 'UNKNOWN', '', #53, #195 ) ;
#37 = ORIENTED_EDGE ( 'NONE', *, *, #98, .F. ) ;
#38 = ORIENTED_EDGE ( 'NONE', *, *, #103, .F. ) ;
#39 = STYLED_ITEM ( 'NONE', ( #196 ), #126 ) ;
#40 = ORIENTED_EDGE ( 'NONE', *, *, #168, .F. ) ;
#41 = DIRECTION ( 'NONE',  ( -1.000000000000000000, -0.000000000000000000, -0.000000000000000000 ) ) ;
#42 = CARTESIAN_POINT ( 'NONE',  ( -60.00000000000000000, -7.347880794884118356E-15, -25.00000000000000000 ) ) ;
#43 = ADVANCED_FACE ( 'NONE', ( #59 ), #143, .F. ) ;
#44 = LINE ( 'NONE', #199, #125 ) ;
#45 = VECTOR ( 'NONE', #223, 1000.000000000000000 ) ;
#46 = DIRECTION ( 'NONE',  ( 1.000000000000000000, -6.195440985631452852E-17, 0.000000000000000000 ) ) ;
#47 = LINE ( 'NONE', #48, #197 ) ;
#48 = CARTESIAN_POINT ( 'NONE',  ( -60.00000000000000000, -7.347880794884118356E-15, 25.00000000000000000 ) ) ;
#49 = AXIS2_PLACEMENT_3D ( 'NONE', #80, #255, #248 ) ;
#50 = AXIS2_PLACEMENT_3D ( 'NONE', #232, #146, #84 ) ;
#51 = EDGE_LOOP ( 'NONE', ( #150, #40, #207, #247 ) ) ;
#52 = EDGE_CURVE ( 'NONE', #250, #128, #5, .T. ) ;
#53 = PRODUCT_DEFINITION_FORMATION_WITH_SPECIFIED_SOURCE ( 'ANY', '', #188, .NOT_KNOWN. ) ;
#54 = LINE ( 'NONE', #35, #217 ) ;
#55 = ADVANCED_FACE ( 'NONE', ( #154 ), #90, .F. ) ;
#56 = CARTESIAN_POINT ( 'NONE',  ( 0.000000000000000000, 0.000000000000000000, 25.00000000000000000 ) ) ;
#57 = EDGE_CURVE ( 'NONE', #142, #86, #47, .T. ) ;
#58 = ORIENTED_EDGE ( 'NONE', *, *, #165, .T. ) ;
#59 = FACE_OUTER_BOUND ( 'NONE', #122, .T. ) ;
#60 = EDGE_CURVE ( 'NONE', #212, #164, #177, .T. ) ;
#61 = DIRECTION ( 'NONE',  ( -0.000000000000000000, -0.000000000000000000, -1.000000000000000000 ) ) ;
#62 = CARTESIAN_POINT ( 'NONE',  ( -4.000000000000003553, 3.999999999999993339, 25.00000000000000000 ) ) ;
#63 = ORIENTED_EDGE ( 'NONE', *, *, #266, .F. ) ;
#64 = AXIS2_PLACEMENT_3D ( 'NONE', #201, #32, #182 ) ;
#65 = ORIENTED_EDGE ( 'NONE', *, *, #57, .T. ) ;
#66 = APPLICATION_CONTEXT ( 'automotive_design' ) ;
#67 = UNCERTAINTY_MEASURE_WITH_UNIT (LENGTH_MEASURE( 1.000000000000000082E-05 ), #226, 'distance_accuracy_value', 'NONE');
#68 = ORIENTED_EDGE ( 'NONE', *, *, #193, .T. ) ;
#69 = CARTESIAN_POINT ( 'NONE',  ( -60.00000000000000000, 3.999999999999993339, 25.00000000000000000 ) ) ;
#70 = ADVANCED_FACE ( 'NONE', ( #24 ), #92, .F. ) ;
#71 = CARTESIAN_POINT ( 'NONE',  ( -60.00000000000000000, -7.347880794884118356E-15, 25.00000000000000000 ) ) ;
#72 = DIRECTION ( 'NONE',  ( 0.000000000000000000, 0.000000000000000000, -1.000000000000000000 ) ) ;
#73 = CARTESIAN_POINT ( 'NONE',  ( -1.224646799147352073E-15, 60.00000000000000000, -25.00000000000000000 ) ) ;
#74 = LINE ( 'NONE', #34, #26 ) ;
#75 = CARTESIAN_POINT ( 'NONE',  ( -60.00000000000000000, 3.999999999999993339, 25.00000000000000000 ) ) ;
#76 = SURFACE_STYLE_FILL_AREA ( #8 ) ;
#77 = CARTESIAN_POINT ( 'NONE',  ( -1.224646799147352073E-15, 60.00000000000000000, -25.00000000000000000 ) ) ;
#78 = DIRECTION ( 'NONE',  ( 1.000000000000000000, 1.224646799147353207E-16, -0.000000000000000000 ) ) ;
#79 = EDGE_CURVE ( 'NONE', #169, #109, #44, .T. ) ;
#80 = CARTESIAN_POINT ( 'NONE',  ( -1.224646799147352073E-15, 60.00000000000000000, 25.00000000000000000 ) ) ;
#81 = VECTOR ( 'NONE', #151, 1000.000000000000000 ) ;
#82 = ORIENTED_EDGE ( 'NONE', *, *, #1, .T. ) ;
#83 = LINE ( 'NONE', #75, #45 ) ;
#84 = DIRECTION ( 'NONE',  ( 1.000000000000000000, 0.000000000000000000, 0.000000000000000000 ) ) ;
#85 = ORIENTED_EDGE ( 'NONE', *, *, #52, .F. ) ;
#86 = VERTEX_POINT ( 'NONE', #23 ) ;
#87 = ORIENTED_EDGE ( 'NONE', *, *, #79, .F. ) ;
#88 = APPLICATION_PROTOCOL_DEFINITION ( 'draft international standard', 'automotive_design', 1998, #159 ) ;
#89 = DIRECTION ( 'NONE',  ( -1.224646799147353207E-16, 1.000000000000000000, 0.000000000000000000 ) ) ;
#90 = PLANE ( 'NONE',  #93 ) ;
#91 = FILL_AREA_STYLE_COLOUR ( '', #31 ) ;
#92 = PLANE ( 'NONE',  #9 ) ;
#93 = AXIS2_PLACEMENT_3D ( 'NONE', #71, #133, #72 ) ;
#94 = DIRECTION ( 'NONE',  ( -1.000000000000000000, -0.000000000000000000, -0.000000000000000000 ) ) ;
#95 = CARTESIAN_POINT ( 'NONE',  ( -60.00000000000000000, 3.999999999999993339, -25.00000000000000000 ) ) ;
#96 = DIRECTION ( 'NONE',  ( -0.000000000000000000, -0.000000000000000000, -1.000000000000000000 ) ) ;
#97 = AXIS2_PLACEMENT_3D ( 'NONE', #69, #173, #239 ) ;
#98 = EDGE_CURVE ( 'NONE', #86, #104, #6, .T. ) ;
#99 = CARTESIAN_POINT ( 'NONE',  ( -1.224646799147352073E-15, 60.00000000000000000, 25.00000000000000000 ) ) ;
#100 = ORIENTED_EDGE ( 'NONE', *, *, #168, .T. ) ;
#101 = EDGE_CURVE ( 'NONE', #164, #206, #137, .T. ) ;
#102 =( NAMED_UNIT ( * ) PLANE_ANGLE_UNIT ( ) SI_UNIT ( $, .RADIAN. ) );
#103 = EDGE_CURVE ( 'NONE', #169, #164, #113, .T. ) ;
#104 = VERTEX_POINT ( 'NONE', #192 ) ;
#105 = VECTOR ( 'NONE', #157, 1000.000000000000000 ) ;
#106 = SHAPE_DEFINITION_REPRESENTATION ( #160, #129 ) ;
#107 = LINE ( 'NONE', #230, #224 ) ;
#108 = ADVANCED_FACE ( 'NONE', ( #235 ), #259, .F. ) ;
#109 = VERTEX_POINT ( 'NONE', #114 ) ;
#110 = UNCERTAINTY_MEASURE_WITH_UNIT (LENGTH_MEASURE( 1.000000000000000082E-05 ), #220, 'distance_accuracy_value', 'NONE');
#111 = FACE_OUTER_BOUND ( 'NONE', #191, .T. ) ;
#112 = AXIS2_PLACEMENT_3D ( 'NONE', #228, #89, #258 ) ;
#113 = LINE ( 'NONE', #218, #81 ) ;
#114 = CARTESIAN_POINT ( 'NONE',  ( -4.000000000000000000, 60.00000000000000000, 25.00000000000000000 ) ) ;
#115 = FACE_OUTER_BOUND ( 'NONE', #51, .T. ) ;
#116 = CARTESIAN_POINT ( 'NONE',  ( -4.000000000000003553, 3.999999999999993339, -25.00000000000000000 ) ) ;
#117 = DIRECTION ( 'NONE',  ( -1.000000000000000000, -0.000000000000000000, -0.000000000000000000 ) ) ;
#118 = DIRECTION ( 'NONE',  ( 1.000000000000000000, 1.224646799147353207E-16, -0.000000000000000000 ) ) ;
#119 = EDGE_CURVE ( 'NONE', #206, #250, #194, .T. ) ;
#120 = CARTESIAN_POINT ( 'NONE',  ( -1.224646799147352073E-15, 60.00000000000000000, 25.00000000000000000 ) ) ;
#121 = SURFACE_STYLE_USAGE ( .BOTH. , #33 ) ;
#122 = EDGE_LOOP ( 'NONE', ( #68, #189, #63, #22 ) ) ;
#123 = ADVANCED_FACE ( 'NONE', ( #115 ), #174, .F. ) ;
#124 = PLANE ( 'NONE',  #64 ) ;
#125 = VECTOR ( 'NONE', #94, 1000.000000000000000 ) ;
#126 = MANIFOLD_SOLID_BREP ( 'Boss.-Extru.1', #231 ) ;
#127 = ORIENTED_EDGE ( 'NONE', *, *, #119, .T. ) ;
#128 = VERTEX_POINT ( 'NONE', #246 ) ;
#129 = ADVANCED_BREP_SHAPE_REPRESENTATION ( 'BASE00H1811-ProfilÚ corniÞre Alu 60x60x6, brut', ( #126, #50 ), #200 ) ;
#130 = ORIENTED_EDGE ( 'NONE', *, *, #60, .T. ) ;
#131 = DIRECTION ( 'NONE',  ( -0.000000000000000000, -1.000000000000000000, -0.000000000000000000 ) ) ;
#132 = AXIS2_PLACEMENT_3D ( 'NONE', #179, #28, #14 ) ;
#133 = DIRECTION ( 'NONE',  ( 1.000000000000000000, 0.000000000000000000, 0.000000000000000000 ) ) ;
#134 = SURFACE_STYLE_USAGE ( .BOTH. , #241 ) ;
#135 = DIRECTION ( 'NONE',  ( -2.041077998578920060E-17, 1.000000000000000000, -0.000000000000000000 ) ) ;
#136 = CARTESIAN_POINT ( 'NONE',  ( -60.00000000000000000, 3.999999999999993339, 25.00000000000000000 ) ) ;
#137 = LINE ( 'NONE', #256, #105 ) ;
#138 = VERTEX_POINT ( 'NONE', #29 ) ;
#139 = LINE ( 'NONE', #62, #148 ) ;
#140 = VECTOR ( 'NONE', #202, 1000.000000000000000 ) ;
#141 = CARTESIAN_POINT ( 'NONE',  ( -4.000000000000003553, 3.999999999999993339, -25.00000000000000000 ) ) ;
#142 = VERTEX_POINT ( 'NONE', #136 ) ;
#143 = PLANE ( 'NONE',  #112 ) ;
#144 = PRODUCT_CONTEXT ( 'NONE', #159, 'mechanical' ) ;
#145 = EDGE_LOOP ( 'NONE', ( #30, #171, #58, #2, #65, #20 ) ) ;
#146 = DIRECTION ( 'NONE',  ( 0.000000000000000000, 0.000000000000000000, 1.000000000000000000 ) ) ;
#147 = EDGE_LOOP ( 'NONE', ( #18, #37, #210, #100 ) ) ;
#148 = VECTOR ( 'NONE', #13, 1000.000000000000000 ) ;
#149 = VERTEX_POINT ( 'NONE', #180 ) ;
#150 = ORIENTED_EDGE ( 'NONE', *, *, #52, .T. ) ;
#151 = DIRECTION ( 'NONE',  ( -0.000000000000000000, -0.000000000000000000, -1.000000000000000000 ) ) ;
#152 = VECTOR ( 'NONE', #78, 1000.000000000000000 ) ;
#153 = FILL_AREA_STYLE ('',( #257 ) ) ;
#154 = FACE_OUTER_BOUND ( 'NONE', #147, .T. ) ;
#155 = DIRECTION ( 'NONE',  ( -6.195440985631452852E-17, -1.000000000000000000, -0.000000000000000000 ) ) ;
#156 = EDGE_CURVE ( 'NONE', #149, #250, #139, .T. ) ;
#157 = DIRECTION ( 'NONE',  ( -1.000000000000000000, -0.000000000000000000, -0.000000000000000000 ) ) ;
#158 = LINE ( 'NONE', #56, #12 ) ;
#159 = APPLICATION_CONTEXT ( 'automotive_design' ) ;
#160 = PRODUCT_DEFINITION_SHAPE ( 'NONE', 'NONE',  #36 ) ;
#161 = CARTESIAN_POINT ( 'NONE',  ( -4.000000000000000000, 60.00000000000000000, -25.00000000000000000 ) ) ;
#162 = VECTOR ( 'NONE', #155, 1000.000000000000000 ) ;
#163 = FACE_OUTER_BOUND ( 'NONE', #145, .T. ) ;
#164 = VERTEX_POINT ( 'NONE', #77 ) ;
#165 = EDGE_CURVE ( 'NONE', #109, #149, #74, .T. ) ;
#166 = ORIENTED_EDGE ( 'NONE', *, *, #101, .T. ) ;
#167 =( NAMED_UNIT ( * ) SI_UNIT ( $, .STERADIAN. ) SOLID_ANGLE_UNIT ( ) );
#168 = EDGE_CURVE ( 'NONE', #142, #128, #83, .T. ) ;
#169 = VERTEX_POINT ( 'NONE', #99 ) ;
#170 = APPLICATION_PROTOCOL_DEFINITION ( 'draft international standard', 'automotive_design', 1998, #66 ) ;
#171 = ORIENTED_EDGE ( 'NONE', *, *, #79, .T. ) ;
#172 = PLANE ( 'NONE',  #49 ) ;
#173 = DIRECTION ( 'NONE',  ( 0.000000000000000000, -1.000000000000000000, 0.000000000000000000 ) ) ;
#174 = PLANE ( 'NONE',  #97 ) ;
#175 = MECHANICAL_DESIGN_GEOMETRIC_PRESENTATION_REPRESENTATION (  '', ( #39 ), #184 ) ;
#176 = DIRECTION ( 'NONE',  ( -0.000000000000000000, -0.000000000000000000, -1.000000000000000000 ) ) ;
#177 = LINE ( 'NONE', #73, #236 ) ;
#178 = UNCERTAINTY_MEASURE_WITH_UNIT (LENGTH_MEASURE( 1.000000000000000082E-05 ), #261, 'distance_accuracy_value', 'NONE');
#179 = CARTESIAN_POINT ( 'NONE',  ( 0.000000000000000000, 0.000000000000000000, -25.00000000000000000 ) ) ;
#180 = CARTESIAN_POINT ( 'NONE',  ( -4.000000000000003553, 3.999999999999993339, 25.00000000000000000 ) ) ;
#181 = EDGE_LOOP ( 'NONE', ( #127, #190, #208, #3 ) ) ;
#182 = DIRECTION ( 'NONE',  ( -1.000000000000000000, 0.000000000000000000, -0.000000000000000000 ) ) ;
#183 = ORIENTED_EDGE ( 'NONE', *, *, #193, .F. ) ;
#184 =( GEOMETRIC_REPRESENTATION_CONTEXT ( 3 ) GLOBAL_UNCERTAINTY_ASSIGNED_CONTEXT ( ( #178 ) ) GLOBAL_UNIT_ASSIGNED_CONTEXT ( ( #261, #15, #243 ) ) REPRESENTATION_CONTEXT ( 'NONE', 'WORKASPACE' ) );
#185 = ORIENTED_EDGE ( 'NONE', *, *, #103, .T. ) ;
#186 = ORIENTED_EDGE ( 'NONE', *, *, #211, .F. ) ;
#187 = PRESENTATION_LAYER_ASSIGNMENT (  '', '', ( #205 ) ) ;
#188 = PRODUCT ( 'BASE00H1811-Profilé cornière Alu 60x60x6, brut', 'BASE00H1811-Profilé cornière Alu 60x60x6, brut', '', ( #144 ) ) ;
#189 = ORIENTED_EDGE ( 'NONE', *, *, #1, .F. ) ;
#190 = ORIENTED_EDGE ( 'NONE', *, *, #156, .F. ) ;
#191 = EDGE_LOOP ( 'NONE', ( #130, #38, #186, #82 ) ) ;
#192 = CARTESIAN_POINT ( 'NONE',  ( -60.00000000000000000, -7.347880794884118356E-15, -25.00000000000000000 ) ) ;
#193 = EDGE_CURVE ( 'NONE', #104, #212, #219, .T. ) ;
#194 = LINE ( 'NONE', #116, #162 ) ;
#195 = PRODUCT_DEFINITION_CONTEXT ( 'detailed design', #66, 'design' ) ;
#196 = PRESENTATION_STYLE_ASSIGNMENT (( #134 ) ) ;
#197 = VECTOR ( 'NONE', #198, 1000.000000000000000 ) ;
#198 = DIRECTION ( 'NONE',  ( -0.000000000000000000, -1.000000000000000000, -0.000000000000000000 ) ) ;
#199 = CARTESIAN_POINT ( 'NONE',  ( -4.000000000000000000, 60.00000000000000000, 25.00000000000000000 ) ) ;
#200 =( GEOMETRIC_REPRESENTATION_CONTEXT ( 3 ) GLOBAL_UNCERTAINTY_ASSIGNED_CONTEXT ( ( #110 ) ) GLOBAL_UNIT_ASSIGNED_CONTEXT ( ( #220, #102, #167 ) ) REPRESENTATION_CONTEXT ( 'NONE', 'WORKASPACE' ) );
#201 = CARTESIAN_POINT ( 'NONE',  ( 0.000000000000000000, 0.000000000000000000, 25.00000000000000000 ) ) ;
#202 = DIRECTION ( 'NONE',  ( -2.041077998578920060E-17, 1.000000000000000000, -0.000000000000000000 ) ) ;
#203 = PRESENTATION_STYLE_ASSIGNMENT (( #121 ) ) ;
#204 = FACE_OUTER_BOUND ( 'NONE', #221, .T. ) ;
#205 = STYLED_ITEM ( 'NONE', ( #203 ), #129 ) ;
#206 = VERTEX_POINT ( 'NONE', #161 ) ;
#207 = ORIENTED_EDGE ( 'NONE', *, *, #7, .F. ) ;
#208 = ORIENTED_EDGE ( 'NONE', *, *, #165, .F. ) ;
#209 = ADVANCED_FACE ( 'NONE', ( #163 ), #124, .F. ) ;
#210 = ORIENTED_EDGE ( 'NONE', *, *, #57, .F. ) ;
#211 = EDGE_CURVE ( 'NONE', #138, #169, #263, .T. ) ;
#212 = VERTEX_POINT ( 'NONE', #245 ) ;
#213 = VECTOR ( 'NONE', #61, 1000.000000000000000 ) ;
#214 = DIRECTION ( 'NONE',  ( 0.000000000000000000, -1.000000000000000000, 0.000000000000000000 ) ) ;
#215 = DIRECTION ( 'NONE',  ( 6.195440985631452852E-17, 1.000000000000000000, 0.000000000000000000 ) ) ;
#216 = DIRECTION ( 'NONE',  ( 0.000000000000000000, -0.000000000000000000, -1.000000000000000000 ) ) ;
#217 = VECTOR ( 'NONE', #96, 1000.000000000000000 ) ;
#218 = CARTESIAN_POINT ( 'NONE',  ( -1.224646799147352073E-15, 60.00000000000000000, 25.00000000000000000 ) ) ;
#219 = LINE ( 'NONE', #264, #152 ) ;
#220 =( LENGTH_UNIT ( ) NAMED_UNIT ( * ) SI_UNIT ( .MILLI., .METRE. ) );
#221 = EDGE_LOOP ( 'NONE', ( #252, #183, #268, #85, #225, #265 ) ) ;
#222 = VECTOR ( 'NONE', #176, 1000.000000000000000 ) ;
#223 = DIRECTION ( 'NONE',  ( -0.000000000000000000, -0.000000000000000000, -1.000000000000000000 ) ) ;
#224 = VECTOR ( 'NONE', #41, 1000.000000000000000 ) ;
#225 = ORIENTED_EDGE ( 'NONE', *, *, #119, .F. ) ;
#226 =( LENGTH_UNIT ( ) NAMED_UNIT ( * ) SI_UNIT ( .MILLI., .METRE. ) );
#227 = EDGE_CURVE ( 'NONE', #109, #206, #54, .T. ) ;
#228 = CARTESIAN_POINT ( 'NONE',  ( 0.000000000000000000, 0.000000000000000000, 25.00000000000000000 ) ) ;
#229 = ORIENTED_EDGE ( 'NONE', *, *, #227, .F. ) ;
#230 = CARTESIAN_POINT ( 'NONE',  ( -60.00000000000000000, 3.999999999999993339, 25.00000000000000000 ) ) ;
#231 = CLOSED_SHELL ( 'NONE', ( #10, #108, #70, #123, #55, #43, #209, #254 ) ) ;
#232 = CARTESIAN_POINT ( 'NONE',  ( 0.000000000000000000, 0.000000000000000000, 0.000000000000000000 ) ) ;
#233 = LINE ( 'NONE', #249, #213 ) ;
#234 = LINE ( 'NONE', #42, #244 ) ;
#235 = FACE_OUTER_BOUND ( 'NONE', #19, .T. ) ;
#236 = VECTOR ( 'NONE', #135, 1000.000000000000000 ) ;
#237 = CARTESIAN_POINT ( 'NONE',  ( -4.000000000000003553, 3.999999999999993339, 25.00000000000000000 ) ) ;
#238 = CARTESIAN_POINT ( 'NONE',  ( -4.000000000000000000, 60.00000000000000000, 25.00000000000000000 ) ) ;
#239 = DIRECTION ( 'NONE',  ( 0.000000000000000000, -0.000000000000000000, -1.000000000000000000 ) ) ;
#240 = MECHANICAL_DESIGN_GEOMETRIC_PRESENTATION_REPRESENTATION (  '', ( #205 ), #16 ) ;
#241 = SURFACE_SIDE_STYLE ('',( #27 ) ) ;
#242 = PLANE ( 'NONE',  #132 ) ;
#243 =( NAMED_UNIT ( * ) SI_UNIT ( $, .STERADIAN. ) SOLID_ANGLE_UNIT ( ) );
#244 = VECTOR ( 'NONE', #131, 1000.000000000000000 ) ;
#245 = CARTESIAN_POINT ( 'NONE',  ( 0.000000000000000000, 0.000000000000000000, -25.00000000000000000 ) ) ;
#246 = CARTESIAN_POINT ( 'NONE',  ( -60.00000000000000000, 3.999999999999993339, -25.00000000000000000 ) ) ;
#247 = ORIENTED_EDGE ( 'NONE', *, *, #156, .T. ) ;
#248 = DIRECTION ( 'NONE',  ( 2.041077998578920060E-17, -1.000000000000000000, 0.000000000000000000 ) ) ;
#249 = CARTESIAN_POINT ( 'NONE',  ( 0.000000000000000000, 0.000000000000000000, 25.00000000000000000 ) ) ;
#250 = VERTEX_POINT ( 'NONE', #141 ) ;
#251 =( NAMED_UNIT ( * ) PLANE_ANGLE_UNIT ( ) SI_UNIT ( $, .RADIAN. ) );
#252 = ORIENTED_EDGE ( 'NONE', *, *, #60, .F. ) ;
#253 = VECTOR ( 'NONE', #117, 1000.000000000000000 ) ;
#254 = ADVANCED_FACE ( 'NONE', ( #204 ), #242, .T. ) ;
#255 = DIRECTION ( 'NONE',  ( -1.000000000000000000, -2.041077998578920060E-17, 0.000000000000000000 ) ) ;
#256 = CARTESIAN_POINT ( 'NONE',  ( -4.000000000000000000, 60.00000000000000000, -25.00000000000000000 ) ) ;
#257 = FILL_AREA_STYLE_COLOUR ( '', #267 ) ;
#258 = DIRECTION ( 'NONE',  ( -1.000000000000000000, -1.224646799147353207E-16, 0.000000000000000000 ) ) ;
#259 = PLANE ( 'NONE',  #260 ) ;
#260 = AXIS2_PLACEMENT_3D ( 'NONE', #238, #214, #216 ) ;
#261 =( LENGTH_UNIT ( ) NAMED_UNIT ( * ) SI_UNIT ( .MILLI., .METRE. ) );
#262 = PRODUCT_RELATED_PRODUCT_CATEGORY ( 'part', '', ( #188 ) ) ;
#263 = LINE ( 'NONE', #120, #140 ) ;
#264 = CARTESIAN_POINT ( 'NONE',  ( 0.000000000000000000, 0.000000000000000000, -25.00000000000000000 ) ) ;
#265 = ORIENTED_EDGE ( 'NONE', *, *, #101, .F. ) ;
#266 = EDGE_CURVE ( 'NONE', #86, #138, #158, .T. ) ;
#267 = COLOUR_RGB ( '',0.8980392156862745390, 0.9215686274509803377, 0.9294117647058823817 ) ;
#268 = ORIENTED_EDGE ( 'NONE', *, *, #17, .F. ) ;
ENDSEC;
END-ISO-10303-21;
