ISO-10303-21;
HEADER;
FILE_DESCRIPTION (( 'STEP AP214' ),
    '1' );
FILE_NAME ('BASE00H1821-Profilé cornière Alu 100x50x3, Brut.step',
    '2023-03-24T09:34:02',
    ( 'Altae' ),
    ( '' ),
    'SwSTEP 2.0',
    'SolidWorks 2021',
    '' );
FILE_SCHEMA (( 'AUTOMOTIVE_DESIGN' ));
ENDSEC;

DATA;
#1 = EDGE_CURVE ( 'NONE', #65, #28, #74, .T. ) ;
#2 = CARTESIAN_POINT ( 'NONE',  ( 0.000000000000000000, 0.000000000000000000, 0.000000000000000000 ) ) ;
#3 = MECHANICAL_DESIGN_GEOMETRIC_PRESENTATION_REPRESENTATION (  '', ( #230 ), #56 ) ;
#4 = EDGE_CURVE ( 'NONE', #134, #188, #156, .T. ) ;
#5 = ORIENTED_EDGE ( 'NONE', *, *, #213, .F. ) ;
#6 = EDGE_LOOP ( 'NONE', ( #237, #240, #169, #58, #109, #147 ) ) ;
#7 = LINE ( 'NONE', #88, #235 ) ;
#8 = PRODUCT_RELATED_PRODUCT_CATEGORY ( 'part', '', ( #159 ) ) ;
#9 = DIRECTION ( 'NONE',  ( -0.000000000000000000, -0.000000000000000000, -1.000000000000000000 ) ) ;
#10 = ORIENTED_EDGE ( 'NONE', *, *, #244, .T. ) ;
#11 = VECTOR ( 'NONE', #15, 1000.000000000000000 ) ;
#12 = PRESENTATION_LAYER_ASSIGNMENT (  '', '', ( #230 ) ) ;
#13 = CARTESIAN_POINT ( 'NONE',  ( 0.000000000000000000, 100.0000000000000000, 25.00000000000000000 ) ) ;
#14 = SURFACE_SIDE_STYLE ('',( #256 ) ) ;
#15 = DIRECTION ( 'NONE',  ( -0.000000000000000000, -0.000000000000000000, -1.000000000000000000 ) ) ;
#16 = ORIENTED_EDGE ( 'NONE', *, *, #189, .F. ) ;
#17 = VECTOR ( 'NONE', #30, 1000.000000000000000 ) ;
#18 = APPLICATION_PROTOCOL_DEFINITION ( 'draft international standard', 'automotive_design', 1998, #80 ) ;
#19 = EDGE_CURVE ( 'NONE', #255, #253, #177, .T. ) ;
#20 = LINE ( 'NONE', #126, #139 ) ;
#21 = MECHANICAL_DESIGN_GEOMETRIC_PRESENTATION_REPRESENTATION (  '', ( #171 ), #251 ) ;
#22 = FACE_OUTER_BOUND ( 'NONE', #6, .T. ) ;
#23 = ORIENTED_EDGE ( 'NONE', *, *, #61, .F. ) ;
#24 = VECTOR ( 'NONE', #173, 1000.000000000000000 ) ;
#25 = FACE_OUTER_BOUND ( 'NONE', #91, .T. ) ;
#26 = ORIENTED_EDGE ( 'NONE', *, *, #231, .T. ) ;
#27 = PLANE ( 'NONE',  #47 ) ;
#28 = VERTEX_POINT ( 'NONE', #175 ) ;
#29 = CARTESIAN_POINT ( 'NONE',  ( -50.00000000000000000, 0.000000000000000000, -25.00000000000000000 ) ) ;
#30 = DIRECTION ( 'NONE',  ( -0.000000000000000000, -1.000000000000000000, -0.000000000000000000 ) ) ;
#31 = PRODUCT_DEFINITION_FORMATION_WITH_SPECIFIED_SOURCE ( 'ANY', '', #159, .NOT_KNOWN. ) ;
#32 = DIRECTION ( 'NONE',  ( 0.000000000000000000, 0.000000000000000000, -1.000000000000000000 ) ) ;
#33 = MANIFOLD_SOLID_BREP ( 'Boss.-Extru.1', #82 ) ;
#34 = CARTESIAN_POINT ( 'NONE',  ( 0.000000000000000000, 0.000000000000000000, 25.00000000000000000 ) ) ;
#35 = AXIS2_PLACEMENT_3D ( 'NONE', #163, #73, #245 ) ;
#36 = EDGE_CURVE ( 'NONE', #148, #65, #20, .T. ) ;
#37 = UNCERTAINTY_MEASURE_WITH_UNIT (LENGTH_MEASURE( 1.000000000000000082E-05 ), #201, 'distance_accuracy_value', 'NONE');
#38 = DIRECTION ( 'NONE',  ( -0.000000000000000000, -0.000000000000000000, -1.000000000000000000 ) ) ;
#39 = DIRECTION ( 'NONE',  ( 0.000000000000000000, 0.000000000000000000, 1.000000000000000000 ) ) ;
#40 = DIRECTION ( 'NONE',  ( -1.000000000000000000, 0.000000000000000000, -0.000000000000000000 ) ) ;
#41 =( LENGTH_UNIT ( ) NAMED_UNIT ( * ) SI_UNIT ( .MILLI., .METRE. ) );
#42 =( NAMED_UNIT ( * ) SI_UNIT ( $, .STERADIAN. ) SOLID_ANGLE_UNIT ( ) );
#43 = ADVANCED_FACE ( 'NONE', ( #263 ), #128, .F. ) ;
#44 = ORIENTED_EDGE ( 'NONE', *, *, #114, .T. ) ;
#45 = DIRECTION ( 'NONE',  ( 0.000000000000000000, 0.000000000000000000, -1.000000000000000000 ) ) ;
#46 = ORIENTED_EDGE ( 'NONE', *, *, #4, .F. ) ;
#47 = AXIS2_PLACEMENT_3D ( 'NONE', #49, #32, #70 ) ;
#48 = EDGE_LOOP ( 'NONE', ( #221, #191, #46, #137 ) ) ;
#49 = CARTESIAN_POINT ( 'NONE',  ( -50.00000000000000000, 3.000000000000002665, -25.00000000000000000 ) ) ;
#50 = CARTESIAN_POINT ( 'NONE',  ( -3.000000000000002665, 3.000000000000002665, 25.00000000000000000 ) ) ;
#51 = AXIS2_PLACEMENT_3D ( 'NONE', #2, #39, #225 ) ;
#52 = SURFACE_STYLE_USAGE ( .BOTH. , #243 ) ;
#53 = FACE_OUTER_BOUND ( 'NONE', #89, .T. ) ;
#54 = CARTESIAN_POINT ( 'NONE',  ( -50.00000000000000000, 0.000000000000000000, 25.00000000000000000 ) ) ;
#55 = ADVANCED_FACE ( 'NONE', ( #77 ), #162, .F. ) ;
#56 =( GEOMETRIC_REPRESENTATION_CONTEXT ( 3 ) GLOBAL_UNCERTAINTY_ASSIGNED_CONTEXT ( ( #103 ) ) GLOBAL_UNIT_ASSIGNED_CONTEXT ( ( #41, #185, #57 ) ) REPRESENTATION_CONTEXT ( 'NONE', 'WORKASPACE' ) );
#57 =( NAMED_UNIT ( * ) SI_UNIT ( $, .STERADIAN. ) SOLID_ANGLE_UNIT ( ) );
#58 = ORIENTED_EDGE ( 'NONE', *, *, #142, .F. ) ;
#59 = DIRECTION ( 'NONE',  ( -0.000000000000000000, -0.000000000000000000, -1.000000000000000000 ) ) ;
#60 = EDGE_LOOP ( 'NONE', ( #87, #146, #153, #193 ) ) ;
#61 = EDGE_CURVE ( 'NONE', #134, #65, #127, .T. ) ;
#62 = LINE ( 'NONE', #124, #150 ) ;
#63 = VERTEX_POINT ( 'NONE', #143 ) ;
#64 = CARTESIAN_POINT ( 'NONE',  ( 0.000000000000000000, 100.0000000000000000, 25.00000000000000000 ) ) ;
#65 = VERTEX_POINT ( 'NONE', #226 ) ;
#66 = AXIS2_PLACEMENT_3D ( 'NONE', #34, #160, #183 ) ;
#67 = ORIENTED_EDGE ( 'NONE', *, *, #4, .T. ) ;
#68 = CARTESIAN_POINT ( 'NONE',  ( 0.000000000000000000, 0.000000000000000000, 25.00000000000000000 ) ) ;
#69 = ORIENTED_EDGE ( 'NONE', *, *, #114, .F. ) ;
#70 = DIRECTION ( 'NONE',  ( -1.000000000000000000, 0.000000000000000000, -0.000000000000000000 ) ) ;
#71 = FILL_AREA_STYLE_COLOUR ( '', #105 ) ;
#72 = VECTOR ( 'NONE', #254, 1000.000000000000000 ) ;
#73 = DIRECTION ( 'NONE',  ( 0.000000000000000000, 1.000000000000000000, 0.000000000000000000 ) ) ;
#74 = LINE ( 'NONE', #204, #158 ) ;
#75 =( NAMED_UNIT ( * ) PLANE_ANGLE_UNIT ( ) SI_UNIT ( $, .RADIAN. ) );
#76 = PRESENTATION_STYLE_ASSIGNMENT (( #52 ) ) ;
#77 = FACE_OUTER_BOUND ( 'NONE', #107, .T. ) ;
#78 = VECTOR ( 'NONE', #38, 1000.000000000000000 ) ;
#79 = CARTESIAN_POINT ( 'NONE',  ( -50.00000000000000000, 3.000000000000002665, 25.00000000000000000 ) ) ;
#80 = APPLICATION_CONTEXT ( 'automotive_design' ) ;
#81 = ADVANCED_BREP_SHAPE_REPRESENTATION ( 'BASE00H1821-ProfilÚ corniÞre Alu 100x50x3, Brut', ( #33, #51 ), #141 ) ;
#82 = CLOSED_SHELL ( 'NONE', ( #125, #262, #267, #129, #144, #43, #55, #182 ) ) ;
#83 = VECTOR ( 'NONE', #217, 1000.000000000000000 ) ;
#84 = ORIENTED_EDGE ( 'NONE', *, *, #189, .T. ) ;
#85 = VECTOR ( 'NONE', #121, 1000.000000000000000 ) ;
#86 = LINE ( 'NONE', #94, #83 ) ;
#87 = ORIENTED_EDGE ( 'NONE', *, *, #142, .T. ) ;
#88 = CARTESIAN_POINT ( 'NONE',  ( 0.000000000000000000, 0.000000000000000000, 25.00000000000000000 ) ) ;
#89 = EDGE_LOOP ( 'NONE', ( #195, #5, #140, #44 ) ) ;
#90 = LINE ( 'NONE', #196, #190 ) ;
#91 = EDGE_LOOP ( 'NONE', ( #232, #234, #132, #111 ) ) ;
#92 = VECTOR ( 'NONE', #194, 1000.000000000000000 ) ;
#93 = EDGE_CURVE ( 'NONE', #172, #258, #104, .T. ) ;
#94 = CARTESIAN_POINT ( 'NONE',  ( 0.000000000000000000, 100.0000000000000000, 25.00000000000000000 ) ) ;
#95 = SURFACE_STYLE_USAGE ( .BOTH. , #14 ) ;
#96 = CARTESIAN_POINT ( 'NONE',  ( 0.000000000000000000, 0.000000000000000000, -25.00000000000000000 ) ) ;
#97 = DIRECTION ( 'NONE',  ( 0.000000000000000000, 0.000000000000000000, -1.000000000000000000 ) ) ;
#98 = ORIENTED_EDGE ( 'NONE', *, *, #36, .T. ) ;
#99 = CARTESIAN_POINT ( 'NONE',  ( 0.000000000000000000, 100.0000000000000000, -25.00000000000000000 ) ) ;
#100 = EDGE_CURVE ( 'NONE', #258, #148, #117, .T. ) ;
#101 = ORIENTED_EDGE ( 'NONE', *, *, #119, .T. ) ;
#102 = CARTESIAN_POINT ( 'NONE',  ( 0.000000000000000000, 0.000000000000000000, -25.00000000000000000 ) ) ;
#103 = UNCERTAINTY_MEASURE_WITH_UNIT (LENGTH_MEASURE( 1.000000000000000082E-05 ), #41, 'distance_accuracy_value', 'NONE');
#104 = LINE ( 'NONE', #261, #92 ) ;
#105 = COLOUR_RGB ( '',0.8980392156862745390, 0.9215686274509803377, 0.9294117647058823817 ) ;
#106 = LINE ( 'NONE', #186, #202 ) ;
#107 = EDGE_LOOP ( 'NONE', ( #67, #26, #215, #101, #212, #84 ) ) ;
#108 = EDGE_CURVE ( 'NONE', #115, #148, #90, .T. ) ;
#109 = ORIENTED_EDGE ( 'NONE', *, *, #19, .F. ) ;
#110 = AXIS2_PLACEMENT_3D ( 'NONE', #242, #214, #199 ) ;
#111 = ORIENTED_EDGE ( 'NONE', *, *, #238, .T. ) ;
#112 = DIRECTION ( 'NONE',  ( 1.000000000000000000, 0.000000000000000000, 0.000000000000000000 ) ) ;
#113 = LINE ( 'NONE', #68, #122 ) ;
#114 = EDGE_CURVE ( 'NONE', #63, #255, #113, .T. ) ;
#115 = VERTEX_POINT ( 'NONE', #149 ) ;
#116 = DIRECTION ( 'NONE',  ( 1.000000000000000000, 0.000000000000000000, 0.000000000000000000 ) ) ;
#117 = LINE ( 'NONE', #259, #11 ) ;
#118 = ORIENTED_EDGE ( 'NONE', *, *, #231, .F. ) ;
#119 = EDGE_CURVE ( 'NONE', #187, #172, #216, .T. ) ;
#120 = LINE ( 'NONE', #200, #78 ) ;
#121 = DIRECTION ( 'NONE',  ( 0.000000000000000000, 1.000000000000000000, 0.000000000000000000 ) ) ;
#122 = VECTOR ( 'NONE', #9, 1000.000000000000000 ) ;
#123 =( NAMED_UNIT ( * ) SI_UNIT ( $, .STERADIAN. ) SOLID_ANGLE_UNIT ( ) );
#124 = CARTESIAN_POINT ( 'NONE',  ( -50.00000000000000000, 0.000000000000000000, 25.00000000000000000 ) ) ;
#125 = ADVANCED_FACE ( 'NONE', ( #252 ), #154, .F. ) ;
#126 = CARTESIAN_POINT ( 'NONE',  ( -50.00000000000000000, 3.000000000000002665, -25.00000000000000000 ) ) ;
#127 = LINE ( 'NONE', #224, #265 ) ;
#128 = PLANE ( 'NONE',  #167 ) ;
#129 = ADVANCED_FACE ( 'NONE', ( #133 ), #170, .F. ) ;
#130 = DIRECTION ( 'NONE',  ( -0.000000000000000000, -1.000000000000000000, -0.000000000000000000 ) ) ;
#131 = VECTOR ( 'NONE', #205, 1000.000000000000000 ) ;
#132 = ORIENTED_EDGE ( 'NONE', *, *, #93, .F. ) ;
#133 = FACE_OUTER_BOUND ( 'NONE', #60, .T. ) ;
#134 = VERTEX_POINT ( 'NONE', #210 ) ;
#135 = LINE ( 'NONE', #29, #247 ) ;
#136 = DIRECTION ( 'NONE',  ( -1.000000000000000000, -0.000000000000000000, -0.000000000000000000 ) ) ;
#137 = ORIENTED_EDGE ( 'NONE', *, *, #61, .T. ) ;
#138 = DIRECTION ( 'NONE',  ( 0.000000000000000000, 1.000000000000000000, 0.000000000000000000 ) ) ;
#139 = VECTOR ( 'NONE', #268, 1000.000000000000000 ) ;
#140 = ORIENTED_EDGE ( 'NONE', *, *, #155, .F. ) ;
#141 =( GEOMETRIC_REPRESENTATION_CONTEXT ( 3 ) GLOBAL_UNCERTAINTY_ASSIGNED_CONTEXT ( ( #211 ) ) GLOBAL_UNIT_ASSIGNED_CONTEXT ( ( #180, #75, #123 ) ) REPRESENTATION_CONTEXT ( 'NONE', 'WORKASPACE' ) );
#142 = EDGE_CURVE ( 'NONE', #253, #115, #257, .T. ) ;
#143 = CARTESIAN_POINT ( 'NONE',  ( 0.000000000000000000, 0.000000000000000000, 25.00000000000000000 ) ) ;
#144 = ADVANCED_FACE ( 'NONE', ( #25 ), #239, .F. ) ;
#145 = AXIS2_PLACEMENT_3D ( 'NONE', #249, #248, #40 ) ;
#146 = ORIENTED_EDGE ( 'NONE', *, *, #238, .F. ) ;
#147 = ORIENTED_EDGE ( 'NONE', *, *, #229, .F. ) ;
#148 = VERTEX_POINT ( 'NONE', #192 ) ;
#149 = CARTESIAN_POINT ( 'NONE',  ( -3.000000000000002665, 100.0000000000000000, -25.00000000000000000 ) ) ;
#150 = VECTOR ( 'NONE', #220, 1000.000000000000000 ) ;
#151 = EDGE_LOOP ( 'NONE', ( #250, #69, #118, #10 ) ) ;
#152 = CARTESIAN_POINT ( 'NONE',  ( 0.000000000000000000, 100.0000000000000000, -25.00000000000000000 ) ) ;
#153 = ORIENTED_EDGE ( 'NONE', *, *, #119, .F. ) ;
#154 = PLANE ( 'NONE',  #164 ) ;
#155 = EDGE_CURVE ( 'NONE', #63, #187, #7, .T. ) ;
#156 = LINE ( 'NONE', #54, #17 ) ;
#157 = FILL_AREA_STYLE ('',( #71 ) ) ;
#158 = VECTOR ( 'NONE', #161, 1000.000000000000000 ) ;
#159 = PRODUCT ( 'BASE00H1821-Profilé cornière Alu 100x50x3, Brut', 'BASE00H1821-Profilé cornière Alu 100x50x3, Brut', '', ( #209 ) ) ;
#160 = DIRECTION ( 'NONE',  ( -1.000000000000000000, 0.000000000000000000, 0.000000000000000000 ) ) ;
#161 = DIRECTION ( 'NONE',  ( -0.000000000000000000, -1.000000000000000000, -0.000000000000000000 ) ) ;
#162 = PLANE ( 'NONE',  #145 ) ;
#163 = CARTESIAN_POINT ( 'NONE',  ( -50.00000000000000000, 0.000000000000000000, 25.00000000000000000 ) ) ;
#164 = AXIS2_PLACEMENT_3D ( 'NONE', #176, #233, #45 ) ;
#165 = SHAPE_DEFINITION_REPRESENTATION ( #266, #81 ) ;
#166 = DIRECTION ( 'NONE',  ( 0.000000000000000000, -0.000000000000000000, -1.000000000000000000 ) ) ;
#167 = AXIS2_PLACEMENT_3D ( 'NONE', #79, #208, #166 ) ;
#168 = CARTESIAN_POINT ( 'NONE',  ( -3.000000000000002665, 100.0000000000000000, 25.00000000000000000 ) ) ;
#169 = ORIENTED_EDGE ( 'NONE', *, *, #108, .F. ) ;
#170 = PLANE ( 'NONE',  #110 ) ;
#171 = STYLED_ITEM ( 'NONE', ( #76 ), #33 ) ;
#172 = VERTEX_POINT ( 'NONE', #168 ) ;
#173 = DIRECTION ( 'NONE',  ( -1.000000000000000000, 0.000000000000000000, 0.000000000000000000 ) ) ;
#174 = PRESENTATION_STYLE_ASSIGNMENT (( #95 ) ) ;
#175 = CARTESIAN_POINT ( 'NONE',  ( -50.00000000000000000, 0.000000000000000000, -25.00000000000000000 ) ) ;
#176 = CARTESIAN_POINT ( 'NONE',  ( -50.00000000000000000, 0.000000000000000000, 25.00000000000000000 ) ) ;
#177 = LINE ( 'NONE', #96, #85 ) ;
#178 = FACE_OUTER_BOUND ( 'NONE', #151, .T. ) ;
#179 = AXIS2_PLACEMENT_3D ( 'NONE', #50, #112, #97 ) ;
#180 =( LENGTH_UNIT ( ) NAMED_UNIT ( * ) SI_UNIT ( .MILLI., .METRE. ) );
#181 = SURFACE_STYLE_FILL_AREA ( #157 ) ;
#182 = ADVANCED_FACE ( 'NONE', ( #22 ), #27, .T. ) ;
#183 = DIRECTION ( 'NONE',  ( 0.000000000000000000, 0.000000000000000000, 1.000000000000000000 ) ) ;
#184 = PLANE ( 'NONE',  #35 ) ;
#185 =( NAMED_UNIT ( * ) PLANE_ANGLE_UNIT ( ) SI_UNIT ( $, .RADIAN. ) );
#186 = CARTESIAN_POINT ( 'NONE',  ( -50.00000000000000000, 3.000000000000002665, 25.00000000000000000 ) ) ;
#187 = VERTEX_POINT ( 'NONE', #64 ) ;
#188 = VERTEX_POINT ( 'NONE', #236 ) ;
#189 = EDGE_CURVE ( 'NONE', #258, #134, #106, .T. ) ;
#190 = VECTOR ( 'NONE', #130, 1000.000000000000000 ) ;
#191 = ORIENTED_EDGE ( 'NONE', *, *, #244, .F. ) ;
#192 = CARTESIAN_POINT ( 'NONE',  ( -3.000000000000002665, 3.000000000000002665, -25.00000000000000000 ) ) ;
#193 = ORIENTED_EDGE ( 'NONE', *, *, #213, .T. ) ;
#194 = DIRECTION ( 'NONE',  ( -0.000000000000000000, -1.000000000000000000, -0.000000000000000000 ) ) ;
#195 = ORIENTED_EDGE ( 'NONE', *, *, #19, .T. ) ;
#196 = CARTESIAN_POINT ( 'NONE',  ( -3.000000000000002665, 3.000000000000002665, -25.00000000000000000 ) ) ;
#197 = COLOUR_RGB ( '',0.8980392156862745390, 0.9215686274509803377, 0.9294117647058823817 ) ;
#198 = EDGE_LOOP ( 'NONE', ( #98, #23, #16, #218 ) ) ;
#199 = DIRECTION ( 'NONE',  ( 0.000000000000000000, -0.000000000000000000, -1.000000000000000000 ) ) ;
#200 = CARTESIAN_POINT ( 'NONE',  ( -50.00000000000000000, 0.000000000000000000, 25.00000000000000000 ) ) ;
#201 =( LENGTH_UNIT ( ) NAMED_UNIT ( * ) SI_UNIT ( .MILLI., .METRE. ) );
#202 = VECTOR ( 'NONE', #136, 1000.000000000000000 ) ;
#203 = CARTESIAN_POINT ( 'NONE',  ( -3.000000000000002665, 100.0000000000000000, 25.00000000000000000 ) ) ;
#204 = CARTESIAN_POINT ( 'NONE',  ( -50.00000000000000000, 0.000000000000000000, -25.00000000000000000 ) ) ;
#205 = DIRECTION ( 'NONE',  ( -0.000000000000000000, -0.000000000000000000, -1.000000000000000000 ) ) ;
#206 = FILL_AREA_STYLE_COLOUR ( '', #197 ) ;
#207 = PRESENTATION_LAYER_ASSIGNMENT (  '', '', ( #171 ) ) ;
#208 = DIRECTION ( 'NONE',  ( 0.000000000000000000, -1.000000000000000000, 0.000000000000000000 ) ) ;
#209 = PRODUCT_CONTEXT ( 'NONE', #227, 'mechanical' ) ;
#210 = CARTESIAN_POINT ( 'NONE',  ( -50.00000000000000000, 3.000000000000002665, 25.00000000000000000 ) ) ;
#211 = UNCERTAINTY_MEASURE_WITH_UNIT (LENGTH_MEASURE( 1.000000000000000082E-05 ), #180, 'distance_accuracy_value', 'NONE');
#212 = ORIENTED_EDGE ( 'NONE', *, *, #93, .T. ) ;
#213 = EDGE_CURVE ( 'NONE', #187, #253, #86, .T. ) ;
#214 = DIRECTION ( 'NONE',  ( 0.000000000000000000, -1.000000000000000000, 0.000000000000000000 ) ) ;
#215 = ORIENTED_EDGE ( 'NONE', *, *, #155, .T. ) ;
#216 = LINE ( 'NONE', #13, #72 ) ;
#217 = DIRECTION ( 'NONE',  ( -0.000000000000000000, -0.000000000000000000, -1.000000000000000000 ) ) ;
#218 = ORIENTED_EDGE ( 'NONE', *, *, #100, .T. ) ;
#219 = LINE ( 'NONE', #203, #131 ) ;
#220 = DIRECTION ( 'NONE',  ( 1.000000000000000000, 0.000000000000000000, 0.000000000000000000 ) ) ;
#221 = ORIENTED_EDGE ( 'NONE', *, *, #1, .T. ) ;
#222 = APPLICATION_PROTOCOL_DEFINITION ( 'draft international standard', 'automotive_design', 1998, #227 ) ;
#223 = PRODUCT_DEFINITION ( 'UNKNOWN', '', #31, #260 ) ;
#224 = CARTESIAN_POINT ( 'NONE',  ( -50.00000000000000000, 3.000000000000002665, 25.00000000000000000 ) ) ;
#225 = DIRECTION ( 'NONE',  ( 1.000000000000000000, 0.000000000000000000, 0.000000000000000000 ) ) ;
#226 = CARTESIAN_POINT ( 'NONE',  ( -50.00000000000000000, 3.000000000000002665, -25.00000000000000000 ) ) ;
#227 = APPLICATION_CONTEXT ( 'automotive_design' ) ;
#228 =( NAMED_UNIT ( * ) PLANE_ANGLE_UNIT ( ) SI_UNIT ( $, .RADIAN. ) );
#229 = EDGE_CURVE ( 'NONE', #28, #255, #135, .T. ) ;
#230 = STYLED_ITEM ( 'NONE', ( #174 ), #81 ) ;
#231 = EDGE_CURVE ( 'NONE', #188, #63, #62, .T. ) ;
#232 = ORIENTED_EDGE ( 'NONE', *, *, #108, .T. ) ;
#233 = DIRECTION ( 'NONE',  ( 1.000000000000000000, 0.000000000000000000, 0.000000000000000000 ) ) ;
#234 = ORIENTED_EDGE ( 'NONE', *, *, #100, .F. ) ;
#235 = VECTOR ( 'NONE', #138, 1000.000000000000000 ) ;
#236 = CARTESIAN_POINT ( 'NONE',  ( -50.00000000000000000, 0.000000000000000000, 25.00000000000000000 ) ) ;
#237 = ORIENTED_EDGE ( 'NONE', *, *, #1, .F. ) ;
#238 = EDGE_CURVE ( 'NONE', #172, #115, #219, .T. ) ;
#239 = PLANE ( 'NONE',  #179 ) ;
#240 = ORIENTED_EDGE ( 'NONE', *, *, #36, .F. ) ;
#241 = FILL_AREA_STYLE ('',( #206 ) ) ;
#242 = CARTESIAN_POINT ( 'NONE',  ( 0.000000000000000000, 100.0000000000000000, 25.00000000000000000 ) ) ;
#243 = SURFACE_SIDE_STYLE ('',( #181 ) ) ;
#244 = EDGE_CURVE ( 'NONE', #188, #28, #120, .T. ) ;
#245 = DIRECTION ( 'NONE',  ( 0.000000000000000000, -0.000000000000000000, 1.000000000000000000 ) ) ;
#246 = CARTESIAN_POINT ( 'NONE',  ( -3.000000000000002665, 3.000000000000002665, 25.00000000000000000 ) ) ;
#247 = VECTOR ( 'NONE', #116, 1000.000000000000000 ) ;
#248 = DIRECTION ( 'NONE',  ( 0.000000000000000000, 0.000000000000000000, -1.000000000000000000 ) ) ;
#249 = CARTESIAN_POINT ( 'NONE',  ( -50.00000000000000000, 3.000000000000002665, 25.00000000000000000 ) ) ;
#250 = ORIENTED_EDGE ( 'NONE', *, *, #229, .T. ) ;
#251 =( GEOMETRIC_REPRESENTATION_CONTEXT ( 3 ) GLOBAL_UNCERTAINTY_ASSIGNED_CONTEXT ( ( #37 ) ) GLOBAL_UNIT_ASSIGNED_CONTEXT ( ( #201, #228, #42 ) ) REPRESENTATION_CONTEXT ( 'NONE', 'WORKASPACE' ) );
#252 = FACE_OUTER_BOUND ( 'NONE', #48, .T. ) ;
#253 = VERTEX_POINT ( 'NONE', #99 ) ;
#254 = DIRECTION ( 'NONE',  ( -1.000000000000000000, 0.000000000000000000, 0.000000000000000000 ) ) ;
#255 = VERTEX_POINT ( 'NONE', #102 ) ;
#256 = SURFACE_STYLE_FILL_AREA ( #241 ) ;
#257 = LINE ( 'NONE', #152, #24 ) ;
#258 = VERTEX_POINT ( 'NONE', #246 ) ;
#259 = CARTESIAN_POINT ( 'NONE',  ( -3.000000000000002665, 3.000000000000002665, 25.00000000000000000 ) ) ;
#260 = PRODUCT_DEFINITION_CONTEXT ( 'detailed design', #80, 'design' ) ;
#261 = CARTESIAN_POINT ( 'NONE',  ( -3.000000000000002665, 3.000000000000002665, 25.00000000000000000 ) ) ;
#262 = ADVANCED_FACE ( 'NONE', ( #178 ), #184, .F. ) ;
#263 = FACE_OUTER_BOUND ( 'NONE', #198, .T. ) ;
#264 = PLANE ( 'NONE',  #66 ) ;
#265 = VECTOR ( 'NONE', #59, 1000.000000000000000 ) ;
#266 = PRODUCT_DEFINITION_SHAPE ( 'NONE', 'NONE',  #223 ) ;
#267 = ADVANCED_FACE ( 'NONE', ( #53 ), #264, .F. ) ;
#268 = DIRECTION ( 'NONE',  ( -1.000000000000000000, -0.000000000000000000, -0.000000000000000000 ) ) ;
ENDSEC;
END-ISO-10303-21;
