ISO-10303-21;
HEADER;
FILE_DESCRIPTION(('STEP AP203'),'1');
FILE_NAME('BASE00H2480.stp','2023-10-02T11:28:48',(' '),(' '),'Spatial InterOp 3D',' ',' ');
FILE_SCHEMA(('CONFIG_CONTROL_DESIGN'));
ENDSEC;
DATA;
#1=DESIGN_CONTEXT('',#53,'design');
#2=APPLICATION_PROTOCOL_DEFINITION('INTERNATIONAL STANDARD','config_control_design',1994,#53);
#3=PRODUCT_CATEGORY_RELATIONSHIP('NONE','NONE',#54,#55);
#4=DATE_AND_TIME(#56,#57);
#5=DATE_TIME_ROLE('creation_date');
#6=DATE_TIME_ROLE('classification_date');
#7=PERSON_AND_ORGANIZATION_ROLE('creator');
#8=PERSON_AND_ORGANIZATION_ROLE('design_supplier');
#9=PERSON_AND_ORGANIZATION_ROLE('classification_officer');
#10=PERSON_AND_ORGANIZATION_ROLE('design_owner');
#11=APPROVAL_PERSON_ORGANIZATION(#58,#59,#60);
#12=APPROVAL_DATE_TIME(#4,#59);
#13=CC_DESIGN_APPROVAL(#59,(#61,#62,#63));
#14=CC_DESIGN_DATE_AND_TIME_ASSIGNMENT(#4,#5,(#63));
#15=CC_DESIGN_DATE_AND_TIME_ASSIGNMENT(#4,#6,(#61));
#16=CC_DESIGN_PERSON_AND_ORGANIZATION_ASSIGNMENT(#58,#10,(#64));
#17=CC_DESIGN_PERSON_AND_ORGANIZATION_ASSIGNMENT(#58,#7,(#63));
#18=CC_DESIGN_PERSON_AND_ORGANIZATION_ASSIGNMENT(#58,#7,(#62));
#19=CC_DESIGN_PERSON_AND_ORGANIZATION_ASSIGNMENT(#58,#8,(#62));
#20=CC_DESIGN_SECURITY_CLASSIFICATION(#61,(#62));
#21=CC_DESIGN_PERSON_AND_ORGANIZATION_ASSIGNMENT(#58,#9,(#61));
#22=SHAPE_DEFINITION_REPRESENTATION(#65,#66);
#23= (GEOMETRIC_REPRESENTATION_CONTEXT(3)GLOBAL_UNCERTAINTY_ASSIGNED_CONTEXT((#69))GLOBAL_UNIT_ASSIGNED_CONTEXT((#71,#72,#73))REPRESENTATION_CONTEXT('NONE','WORKSPACE'));
#24=PROPERTY_DEFINITION_REPRESENTATION(#75,#76);
#25=GENERAL_PROPERTY_ASSOCIATION('','',#77,#75);
#26=PROPERTY_DEFINITION_REPRESENTATION(#78,#79);
#27=GENERAL_PROPERTY_ASSOCIATION('','',#80,#78);
#28=PROPERTY_DEFINITION_REPRESENTATION(#81,#82);
#29=GENERAL_PROPERTY_ASSOCIATION('','',#83,#81);
#30=PROPERTY_DEFINITION_REPRESENTATION(#84,#85);
#31=GENERAL_PROPERTY_ASSOCIATION('','',#86,#84);
#32=PROPERTY_DEFINITION_REPRESENTATION(#87,#88);
#33=GENERAL_PROPERTY_ASSOCIATION('','',#89,#87);
#34=PROPERTY_DEFINITION_REPRESENTATION(#90,#91);
#35=GENERAL_PROPERTY_ASSOCIATION('','',#92,#90);
#36=PROPERTY_DEFINITION_REPRESENTATION(#93,#94);
#37=GENERAL_PROPERTY_ASSOCIATION('','',#95,#93);
#38=PROPERTY_DEFINITION_REPRESENTATION(#96,#97);
#39=GENERAL_PROPERTY_ASSOCIATION('','',#98,#96);
#40=PROPERTY_DEFINITION_REPRESENTATION(#99,#100);
#41=GENERAL_PROPERTY_ASSOCIATION('','',#101,#99);
#42=PROPERTY_DEFINITION_REPRESENTATION(#102,#103);
#43=GENERAL_PROPERTY_ASSOCIATION('','',#104,#102);
#44=PROPERTY_DEFINITION_REPRESENTATION(#105,#106);
#45=GENERAL_PROPERTY_ASSOCIATION('','',#107,#105);
#46=PROPERTY_DEFINITION_REPRESENTATION(#108,#109);
#47=GENERAL_PROPERTY_ASSOCIATION('','',#110,#108);
#48=PROPERTY_DEFINITION_REPRESENTATION(#111,#112);
#49=GENERAL_PROPERTY_ASSOCIATION('','',#113,#111);
#53=APPLICATION_CONTEXT('CONFIGURATION CONTROLLED 3D DESIGNS OF MECHANICAL PARTS AND ASSEMBLIES');
#54=PRODUCT_CATEGORY('part','NONE');
#55=PRODUCT_RELATED_PRODUCT_CATEGORY('detail',' ',(#64));
#56=CALENDAR_DATE(2023,2,9);
#57=LOCAL_TIME(13,28,48.0,#114);
#58=PERSON_AND_ORGANIZATION(#115,#116);
#59=APPROVAL(#117,'SOLID MODEL');
#60=APPROVAL_ROLE('APPROVED');
#61=SECURITY_CLASSIFICATION('','',#118);
#62=PRODUCT_DEFINITION_FORMATION_WITH_SPECIFIED_SOURCE('A','NONE',#64,.NOT_KNOWN.);
#63=PRODUCT_DEFINITION('','NONE',#62,#1);
#64=PRODUCT('BASE00H2480','%#@![$ComplementaryPartNumber=BASE00H2480]','Patin embase PA D30, rotule 10',(#119));
#65=PRODUCT_DEFINITION_SHAPE('NONE','NONE',#63);
#66=ADVANCED_BREP_SHAPE_REPRESENTATION('1',(#120,#121),#23);
#69=UNCERTAINTY_MEASURE_WITH_UNIT(LENGTH_MEASURE(0.001),#71,'','');
#71= (CONVERSION_BASED_UNIT('MILLIMETRE',#124)LENGTH_UNIT()NAMED_UNIT(#127));
#72= (NAMED_UNIT(#129)PLANE_ANGLE_UNIT()SI_UNIT($,.RADIAN.));
#73= (NAMED_UNIT(#129)SOLID_ANGLE_UNIT()SI_UNIT($,.STERADIAN.));
#75=PROPERTY_DEFINITION('PdmObjectId','',#63);
#76=REPRESENTATION('',(#135),#23);
#77=GENERAL_PROPERTY('','19_8097c7f7-704a-42c3-b548-a5dce55d61c4&5_526_17_12','');
#78=PROPERTY_DEFINITION('Type de production hellomoov','',#63);
#79=REPRESENTATION('',(#136),#23);
#80=GENERAL_PROPERTY('','pi\X2\00E8\X0\ce du stock','');
#81=PROPERTY_DEFINITION('DESIGNATION_ENG','',#63);
#82=REPRESENTATION('',(#137),#23);
#83=GENERAL_PROPERTY('','','');
#84=PROPERTY_DEFINITION('CODE_TRANSEPT','',#63);
#85=REPRESENTATION('',(#138),#23);
#86=GENERAL_PROPERTY('','-','');
#87=PROPERTY_DEFINITION('D\X2\00E9\X0\signation de la finition','',#63);
#88=REPRESENTATION('',(#139),#23);
#89=GENERAL_PROPERTY('','RAL 9017','');
#90=PROPERTY_DEFINITION('Nom de la finition','',#63);
#91=REPRESENTATION('',(#140),#23);
#92=GENERAL_PROPERTY('','RAL 9017 noir signalisation','');
#93=PROPERTY_DEFINITION('R\X2\00E9\X0\f\X2\00E9\X0\rence du mat\X2\00E9\X0\riau','',#63);
#94=REPRESENTATION('',(#141),#23);
#95=GENERAL_PROPERTY('','Polypropyl\X2\00E8\X0\ne TPE noir','');
#96=PROPERTY_DEFINITION('D\X2\00E9\X0\signation du mat\X2\00E9\X0\riau','',#63);
#97=REPRESENTATION('',(#142),#23);
#98=GENERAL_PROPERTY('','PP-TPE noir','');
#99=PROPERTY_DEFINITION('Nom du mat\X2\00E9\X0\riau','',#63);
#100=REPRESENTATION('',(#143),#23);
#101=GENERAL_PROPERTY('','PP-TPE noir','');
#102=PROPERTY_DEFINITION('Manufacturer','',#63);
#103=REPRESENTATION('',(#144),#23);
#104=GENERAL_PROPERTY('','HELLOMOOV','');
#105=PROPERTY_DEFINITION('CreationDate','',#63);
#106=REPRESENTATION('',(#145),#23);
#107=GENERAL_PROPERTY('','27/09/2023 07:37:36','');
#108=PROPERTY_DEFINITION('Minor Revision','',#63);
#109=REPRESENTATION('',(#146),#23);
#110=GENERAL_PROPERTY('','0','');
#111=PROPERTY_DEFINITION('Complementary Part Number','',#63);
#112=REPRESENTATION('',(#147),#23);
#113=GENERAL_PROPERTY('','%#@![$Name=BASE00H2480]','');
#114=COORDINATED_UNIVERSAL_TIME_OFFSET(1,0,.AHEAD.);
#115=PERSON('','UNSPECIFIED',$,$,$,$);
#116=ORGANIZATION('UNSPECIFIED','UNSPECIFIED','UNSPECIFIED');
#117=APPROVAL_STATUS('approved');
#118=SECURITY_CLASSIFICATION_LEVEL('unclassified');
#119=MECHANICAL_CONTEXT('',#53,'mechanical');
#120=MANIFOLD_SOLID_BREP('1',#148);
#121=AXIS2_PLACEMENT_3D('',#149,#150,#151);
#124=LENGTH_MEASURE_WITH_UNIT(LENGTH_MEASURE(1.0),#152);
#127=DIMENSIONAL_EXPONENTS(1.0,0.0,0.0,0.0,0.0,0.0,0.0);
#129=DIMENSIONAL_EXPONENTS(0.0,0.0,0.0,0.0,0.0,0.0,0.0);
#135=DESCRIPTIVE_REPRESENTATION_ITEM('','19_8097c7f7-704a-42c3-b548-a5dce55d61c4&5_526_17_12');
#136=DESCRIPTIVE_REPRESENTATION_ITEM('','pi\X2\00E8\X0\ce du stock');
#137=DESCRIPTIVE_REPRESENTATION_ITEM('','');
#138=DESCRIPTIVE_REPRESENTATION_ITEM('','-');
#139=DESCRIPTIVE_REPRESENTATION_ITEM('','RAL 9017');
#140=DESCRIPTIVE_REPRESENTATION_ITEM('','RAL 9017 noir signalisation');
#141=DESCRIPTIVE_REPRESENTATION_ITEM('','Polypropyl\X2\00E8\X0\ne TPE noir');
#142=DESCRIPTIVE_REPRESENTATION_ITEM('','PP-TPE noir');
#143=DESCRIPTIVE_REPRESENTATION_ITEM('','PP-TPE noir');
#144=DESCRIPTIVE_REPRESENTATION_ITEM('','HELLOMOOV');
#145=DESCRIPTIVE_REPRESENTATION_ITEM('','27/09/2023 07:37:36');
#146=DESCRIPTIVE_REPRESENTATION_ITEM('','0');
#147=DESCRIPTIVE_REPRESENTATION_ITEM('','%#@![$Name=BASE00H2480]');
#148=CLOSED_SHELL('',(#153,#154,#155,#156,#157,#158,#159,#160,#161,#162,#163,#164,#165));
#149=CARTESIAN_POINT('',(0.0,0.0,0.0));
#150=DIRECTION('',(0.0,0.0,1.0));
#151=DIRECTION('',(1.0,0.0,0.0));
#152= (NAMED_UNIT(#127)LENGTH_UNIT()SI_UNIT(.MILLI.,.METRE.));
#153=ADVANCED_FACE('',(#167,#168),#169,.F.);
#154=ADVANCED_FACE('',(#170),#171,.F.);
#155=ADVANCED_FACE('',(#172,#173),#174,.T.);
#156=ADVANCED_FACE('',(#175),#176,.F.);
#157=ADVANCED_FACE('',(#177,#178),#179,.T.);
#158=ADVANCED_FACE('',(#180,#181),#182,.T.);
#159=ADVANCED_FACE('',(#183,#184),#185,.F.);
#160=ADVANCED_FACE('',(#186,#187),#188,.T.);
#161=ADVANCED_FACE('',(#189,#190),#191,.T.);
#162=ADVANCED_FACE('',(#192,#193),#194,.F.);
#163=ADVANCED_FACE('',(#195,#196),#197,.F.);
#164=ADVANCED_FACE('',(#198,#199),#200,.T.);
#165=ADVANCED_FACE('',(#201,#202),#203,.T.);
#167=FACE_OUTER_BOUND('',#204,.T.);
#168=FACE_OUTER_BOUND('',#205,.T.);
#169=CYLINDRICAL_SURFACE('',#206,8.35);
#170=FACE_OUTER_BOUND('',#207,.T.);
#171=PLANE('',#208);
#172=FACE_OUTER_BOUND('',#209,.T.);
#173=FACE_OUTER_BOUND('',#210,.T.);
#174=TOROIDAL_SURFACE('',#211,8.85,0.5);
#175=FACE_OUTER_BOUND('',#212,.T.);
#176=PLANE('',#213);
#177=FACE_OUTER_BOUND('',#214,.T.);
#178=FACE_OUTER_BOUND('',#215,.T.);
#179=TOROIDAL_SURFACE('',#216,14.0530384493976,0.2);
#180=FACE_OUTER_BOUND('',#217,.T.);
#181=FACE_BOUND('',#218,.T.);
#182=CONICAL_SURFACE('',#219,14.5735123370499,0.174532925199433);
#183=FACE_OUTER_BOUND('',#220,.T.);
#184=FACE_OUTER_BOUND('',#221,.T.);
#185=TOROIDAL_SURFACE('',#222,11.55,0.5);
#186=FACE_OUTER_BOUND('',#223,.T.);
#187=FACE_OUTER_BOUND('',#224,.T.);
#188=TOROIDAL_SURFACE('',#225,11.05,0.5);
#189=FACE_OUTER_BOUND('',#226,.T.);
#190=FACE_OUTER_BOUND('',#227,.T.);
#191=CYLINDRICAL_SURFACE('',#228,11.05);
#192=FACE_BOUND('',#229,.T.);
#193=FACE_OUTER_BOUND('',#230,.T.);
#194=PLANE('',#231);
#195=FACE_BOUND('',#232,.T.);
#196=FACE_OUTER_BOUND('',#233,.T.);
#197=CONICAL_SURFACE('',#234,8.62305796622893,1.09967687676947);
#198=FACE_OUTER_BOUND('',#235,.T.);
#199=FACE_OUTER_BOUND('',#236,.T.);
#200=TOROIDAL_SURFACE('',#237,10.55,1.0);
#201=FACE_OUTER_BOUND('',#238,.T.);
#202=FACE_OUTER_BOUND('',#239,.T.);
#203=CYLINDRICAL_SURFACE('',#240,11.55);
#204=EDGE_LOOP('',(#241));
#205=EDGE_LOOP('',(#242));
#206=AXIS2_PLACEMENT_3D('',#243,#244,#245);
#207=EDGE_LOOP('',(#246));
#208=AXIS2_PLACEMENT_3D('',#247,#248,#249);
#209=EDGE_LOOP('',(#250));
#210=EDGE_LOOP('',(#251));
#211=AXIS2_PLACEMENT_3D('',#252,#253,#254);
#212=EDGE_LOOP('',(#255));
#213=AXIS2_PLACEMENT_3D('',#256,#257,#258);
#214=EDGE_LOOP('',(#259));
#215=EDGE_LOOP('',(#260));
#216=AXIS2_PLACEMENT_3D('',#261,#262,#263);
#217=EDGE_LOOP('',(#264));
#218=EDGE_LOOP('',(#265));
#219=AXIS2_PLACEMENT_3D('',#266,#267,#268);
#220=EDGE_LOOP('',(#269));
#221=EDGE_LOOP('',(#270));
#222=AXIS2_PLACEMENT_3D('',#271,#272,#273);
#223=EDGE_LOOP('',(#274));
#224=EDGE_LOOP('',(#275));
#225=AXIS2_PLACEMENT_3D('',#276,#277,#278);
#226=EDGE_LOOP('',(#279));
#227=EDGE_LOOP('',(#280));
#228=AXIS2_PLACEMENT_3D('',#281,#282,#283);
#229=EDGE_LOOP('',(#284));
#230=EDGE_LOOP('',(#285));
#231=AXIS2_PLACEMENT_3D('',#286,#287,#288);
#232=EDGE_LOOP('',(#289));
#233=EDGE_LOOP('',(#290));
#234=AXIS2_PLACEMENT_3D('',#291,#292,#293);
#235=EDGE_LOOP('',(#294));
#236=EDGE_LOOP('',(#295));
#237=AXIS2_PLACEMENT_3D('',#296,#297,#298);
#238=EDGE_LOOP('',(#299));
#239=EDGE_LOOP('',(#300));
#240=AXIS2_PLACEMENT_3D('',#301,#302,#303);
#241=ORIENTED_EDGE('',*,*,#304,.T.);
#242=ORIENTED_EDGE('',*,*,#305,.F.);
#243=CARTESIAN_POINT('',(0.0,0.0,0.0));
#244=DIRECTION('',(0.0,-1.0,0.0));
#245=DIRECTION('',(0.0,0.0,-1.0));
#246=ORIENTED_EDGE('',*,*,#304,.F.);
#247=CARTESIAN_POINT('',(0.0,2.0,0.0));
#248=DIRECTION('',(0.0,-1.0,0.0));
#249=DIRECTION('',(0.0,0.0,-1.0));
#250=ORIENTED_EDGE('',*,*,#306,.F.);
#251=ORIENTED_EDGE('',*,*,#305,.T.);
#252=CARTESIAN_POINT('',(0.0,4.379375,0.0));
#253=DIRECTION('',(0.0,-1.0,0.0));
#254=DIRECTION('',(0.0,0.0,-1.0));
#255=ORIENTED_EDGE('',*,*,#307,.T.);
#256=CARTESIAN_POINT('',(14.0530384493976,-9.48676900924816E-17,0.0));
#257=DIRECTION('',(-0.0,1.0,0.0));
#258=DIRECTION('',(1.0,0.0,0.0));
#259=ORIENTED_EDGE('',*,*,#307,.F.);
#260=ORIENTED_EDGE('',*,*,#308,.T.);
#261=CARTESIAN_POINT('',(0.0,0.2,0.0));
#262=DIRECTION('',(0.0,-1.0,0.0));
#263=DIRECTION('',(0.0,0.0,-1.0));
#264=ORIENTED_EDGE('',*,*,#309,.T.);
#265=ORIENTED_EDGE('',*,*,#308,.F.);
#266=CARTESIAN_POINT('',(0.0,2.0,0.0));
#267=DIRECTION('',(-0.0,1.0,-0.0));
#268=DIRECTION('',(0.0,0.0,1.0));
#269=ORIENTED_EDGE('',*,*,#310,.T.);
#270=ORIENTED_EDGE('',*,*,#311,.F.);
#271=CARTESIAN_POINT('',(0.0,3.31778248274975,0.0));
#272=DIRECTION('',(0.0,-1.0,0.0));
#273=DIRECTION('',(0.0,0.0,-1.0));
#274=ORIENTED_EDGE('',*,*,#312,.F.);
#275=ORIENTED_EDGE('',*,*,#313,.T.);
#276=CARTESIAN_POINT('',(0.0,5.5,0.0));
#277=DIRECTION('',(0.0,-1.0,0.0));
#278=DIRECTION('',(0.0,0.0,-1.0));
#279=ORIENTED_EDGE('',*,*,#311,.T.);
#280=ORIENTED_EDGE('',*,*,#314,.F.);
#281=CARTESIAN_POINT('',(0.0,0.0,0.0));
#282=DIRECTION('',(0.0,-1.0,0.0));
#283=DIRECTION('',(0.0,0.0,-1.0));
#284=ORIENTED_EDGE('',*,*,#314,.T.);
#285=ORIENTED_EDGE('',*,*,#309,.F.);
#286=CARTESIAN_POINT('',(11.05,2.0,0.0));
#287=DIRECTION('',(0.0,-1.0,0.0));
#288=DIRECTION('',(0.0,0.0,-1.0));
#289=ORIENTED_EDGE('',*,*,#306,.T.);
#290=ORIENTED_EDGE('',*,*,#313,.F.);
#291=CARTESIAN_POINT('',(0.0,4.8249053730475,0.0));
#292=DIRECTION('',(-0.0,1.0,-0.0));
#293=DIRECTION('',(0.0,0.0,1.0));
#294=ORIENTED_EDGE('',*,*,#310,.F.);
#295=ORIENTED_EDGE('',*,*,#315,.T.);
#296=CARTESIAN_POINT('',(0.0,4.43581647149964,0.0));
#297=DIRECTION('',(0.0,-1.0,0.0));
#298=DIRECTION('',(0.0,0.0,-1.0));
#299=ORIENTED_EDGE('',*,*,#312,.T.);
#300=ORIENTED_EDGE('',*,*,#315,.F.);
#301=CARTESIAN_POINT('',(0.0,0.0,0.0));
#302=DIRECTION('',(0.0,-1.0,0.0));
#303=DIRECTION('',(0.0,0.0,-1.0));
#304=EDGE_CURVE('',#316,#316,#317,.T.);
#305=EDGE_CURVE('',#318,#318,#319,.T.);
#306=EDGE_CURVE('',#320,#320,#321,.T.);
#307=EDGE_CURVE('',#322,#322,#323,.T.);
#308=EDGE_CURVE('',#324,#324,#325,.T.);
#309=EDGE_CURVE('',#326,#326,#327,.T.);
#310=EDGE_CURVE('',#328,#328,#329,.T.);
#311=EDGE_CURVE('',#330,#330,#331,.T.);
#312=EDGE_CURVE('',#332,#332,#333,.T.);
#313=EDGE_CURVE('',#334,#334,#335,.T.);
#314=EDGE_CURVE('',#336,#336,#337,.T.);
#315=EDGE_CURVE('',#338,#338,#339,.T.);
#316=VERTEX_POINT('',#340);
#317=CIRCLE('',#341,8.35);
#318=VERTEX_POINT('',#342);
#319=CIRCLE('',#343,8.35);
#320=VERTEX_POINT('',#344);
#321=CIRCLE('',#345,8.62305796622893);
#322=VERTEX_POINT('',#346);
#323=CIRCLE('',#347,14.0530384493976);
#324=VERTEX_POINT('',#348);
#325=CIRCLE('',#349,14.25);
#326=VERTEX_POINT('',#350);
#327=CIRCLE('',#351,14.5735123370499);
#328=VERTEX_POINT('',#352);
#329=CIRCLE('',#353,11.2166666666667);
#330=VERTEX_POINT('',#354);
#331=CIRCLE('',#355,11.05);
#332=VERTEX_POINT('',#356);
#333=CIRCLE('',#357,11.55);
#334=VERTEX_POINT('',#358);
#335=CIRCLE('',#359,10.8230579662289);
#336=VERTEX_POINT('',#360);
#337=CIRCLE('',#361,11.05);
#338=VERTEX_POINT('',#362);
#339=CIRCLE('',#363,11.55);
#340=CARTESIAN_POINT('',(0.0,2.0,-8.35));
#341=AXIS2_PLACEMENT_3D('',#364,#365,#366);
#342=CARTESIAN_POINT('',(0.0,4.379375,-8.35));
#343=AXIS2_PLACEMENT_3D('',#367,#368,#369);
#344=CARTESIAN_POINT('',(0.0,4.8249053730475,-8.62305796622893));
#345=AXIS2_PLACEMENT_3D('',#370,#371,#372);
#346=CARTESIAN_POINT('',(0.0,-1.89735380184963E-16,-14.0530384493976));
#347=AXIS2_PLACEMENT_3D('',#373,#374,#375);
#348=CARTESIAN_POINT('',(0.0,0.165270364466614,-14.25));
#349=AXIS2_PLACEMENT_3D('',#376,#377,#378);
#350=CARTESIAN_POINT('',(0.0,2.0,-14.5735123370499));
#351=AXIS2_PLACEMENT_3D('',#379,#380,#381);
#352=CARTESIAN_POINT('',(0.0,3.69046047899971,-11.2166666666667));
#353=AXIS2_PLACEMENT_3D('',#382,#383,#384);
#354=CARTESIAN_POINT('',(0.0,3.31778248274975,-11.05));
#355=AXIS2_PLACEMENT_3D('',#385,#386,#387);
#356=CARTESIAN_POINT('',(0.0,5.5,-11.55));
#357=AXIS2_PLACEMENT_3D('',#388,#389,#390);
#358=CARTESIAN_POINT('',(0.0,5.9455303730475,-10.8230579662289));
#359=AXIS2_PLACEMENT_3D('',#391,#392,#393);
#360=CARTESIAN_POINT('',(0.0,2.0,-11.05));
#361=AXIS2_PLACEMENT_3D('',#394,#395,#396);
#362=CARTESIAN_POINT('',(0.0,4.43581647149964,-11.55));
#363=AXIS2_PLACEMENT_3D('',#397,#398,#399);
#364=CARTESIAN_POINT('',(0.0,2.0,0.0));
#365=DIRECTION('',(0.0,-1.0,0.0));
#366=DIRECTION('',(0.0,0.0,-1.0));
#367=CARTESIAN_POINT('',(0.0,4.379375,0.0));
#368=DIRECTION('',(0.0,-1.0,0.0));
#369=DIRECTION('',(0.0,0.0,-1.0));
#370=CARTESIAN_POINT('',(0.0,4.8249053730475,0.0));
#371=DIRECTION('',(0.0,-1.0,0.0));
#372=DIRECTION('',(0.0,0.0,-1.0));
#373=CARTESIAN_POINT('',(0.0,-1.89735380184963E-16,0.0));
#374=DIRECTION('',(0.0,-1.0,0.0));
#375=DIRECTION('',(0.0,0.0,-1.0));
#376=CARTESIAN_POINT('',(0.0,0.165270364466614,0.0));
#377=DIRECTION('',(0.0,-1.0,0.0));
#378=DIRECTION('',(0.0,0.0,-1.0));
#379=CARTESIAN_POINT('',(0.0,2.0,0.0));
#380=DIRECTION('',(0.0,-1.0,0.0));
#381=DIRECTION('',(0.0,0.0,-1.0));
#382=CARTESIAN_POINT('',(0.0,3.69046047899971,0.0));
#383=DIRECTION('',(0.0,-1.0,0.0));
#384=DIRECTION('',(0.0,0.0,-1.0));
#385=CARTESIAN_POINT('',(0.0,3.31778248274975,0.0));
#386=DIRECTION('',(0.0,-1.0,0.0));
#387=DIRECTION('',(0.0,0.0,-1.0));
#388=CARTESIAN_POINT('',(0.0,5.5,0.0));
#389=DIRECTION('',(0.0,-1.0,0.0));
#390=DIRECTION('',(0.0,0.0,-1.0));
#391=CARTESIAN_POINT('',(0.0,5.9455303730475,0.0));
#392=DIRECTION('',(0.0,-1.0,0.0));
#393=DIRECTION('',(0.0,0.0,-1.0));
#394=CARTESIAN_POINT('',(0.0,2.0,0.0));
#395=DIRECTION('',(0.0,-1.0,0.0));
#396=DIRECTION('',(0.0,0.0,-1.0));
#397=CARTESIAN_POINT('',(0.0,4.43581647149964,0.0));
#398=DIRECTION('',(0.0,-1.0,0.0));
#399=DIRECTION('',(0.0,0.0,-1.0));
ENDSEC;
END-ISO-10303-21;
