ISO-10303-21;
HEADER;
FILE_DESCRIPTION(('STEP AP203'),'1');
FILE_NAME('BASE08E3047.stp','2023-10-02T13:04:24',(' '),(' '),'Spatial InterOp 3D',' ',' ');
FILE_SCHEMA(('CONFIG_CONTROL_DESIGN'));
ENDSEC;
DATA;
#1=DESIGN_CONTEXT('',#63,'design');
#2=APPLICATION_PROTOCOL_DEFINITION('INTERNATIONAL STANDARD','config_control_design',1994,#63);
#3=PRODUCT_CATEGORY_RELATIONSHIP('NONE','NONE',#64,#65);
#4=DATE_AND_TIME(#66,#67);
#5=DATE_TIME_ROLE('creation_date');
#6=DATE_TIME_ROLE('classification_date');
#7=PERSON_AND_ORGANIZATION_ROLE('creator');
#8=PERSON_AND_ORGANIZATION_ROLE('design_supplier');
#9=PERSON_AND_ORGANIZATION_ROLE('classification_officer');
#10=PERSON_AND_ORGANIZATION_ROLE('design_owner');
#11=APPROVAL_PERSON_ORGANIZATION(#68,#69,#70);
#12=APPROVAL_DATE_TIME(#4,#69);
#13=CC_DESIGN_APPROVAL(#69,(#71,#72,#73));
#14=CC_DESIGN_DATE_AND_TIME_ASSIGNMENT(#4,#5,(#73));
#15=CC_DESIGN_DATE_AND_TIME_ASSIGNMENT(#4,#6,(#71));
#16=CC_DESIGN_PERSON_AND_ORGANIZATION_ASSIGNMENT(#68,#10,(#74));
#17=CC_DESIGN_PERSON_AND_ORGANIZATION_ASSIGNMENT(#68,#7,(#73));
#18=CC_DESIGN_PERSON_AND_ORGANIZATION_ASSIGNMENT(#68,#7,(#72));
#19=CC_DESIGN_PERSON_AND_ORGANIZATION_ASSIGNMENT(#68,#8,(#72));
#20=CC_DESIGN_SECURITY_CLASSIFICATION(#71,(#72));
#21=CC_DESIGN_PERSON_AND_ORGANIZATION_ASSIGNMENT(#68,#9,(#71));
#22=SHAPE_DEFINITION_REPRESENTATION(#75,#76);
#23= (GEOMETRIC_REPRESENTATION_CONTEXT(3)GLOBAL_UNCERTAINTY_ASSIGNED_CONTEXT((#79))GLOBAL_UNIT_ASSIGNED_CONTEXT((#81,#82,#83))REPRESENTATION_CONTEXT('NONE','WORKSPACE'));
#24=PROPERTY_DEFINITION_REPRESENTATION(#85,#86);
#25=GENERAL_PROPERTY_ASSOCIATION('','',#87,#85);
#26=PROPERTY_DEFINITION_REPRESENTATION(#88,#89);
#27=GENERAL_PROPERTY_ASSOCIATION('','',#90,#88);
#28=PROPERTY_DEFINITION_REPRESENTATION(#91,#92);
#29=GENERAL_PROPERTY_ASSOCIATION('','',#93,#91);
#30=PROPERTY_DEFINITION_REPRESENTATION(#94,#95);
#31=GENERAL_PROPERTY_ASSOCIATION('','',#96,#94);
#32=PROPERTY_DEFINITION_REPRESENTATION(#97,#98);
#33=GENERAL_PROPERTY_ASSOCIATION('','',#99,#97);
#34=PROPERTY_DEFINITION_REPRESENTATION(#100,#101);
#35=GENERAL_PROPERTY_ASSOCIATION('','',#102,#100);
#36=PROPERTY_DEFINITION_REPRESENTATION(#103,#104);
#37=GENERAL_PROPERTY_ASSOCIATION('','',#105,#103);
#38=PROPERTY_DEFINITION_REPRESENTATION(#106,#107);
#39=GENERAL_PROPERTY_ASSOCIATION('','',#108,#106);
#40=PROPERTY_DEFINITION_REPRESENTATION(#109,#110);
#41=GENERAL_PROPERTY_ASSOCIATION('','',#111,#109);
#42=PROPERTY_DEFINITION_REPRESENTATION(#112,#113);
#43=GENERAL_PROPERTY_ASSOCIATION('','',#114,#112);
#44=PROPERTY_DEFINITION_REPRESENTATION(#115,#116);
#45=GENERAL_PROPERTY_ASSOCIATION('','',#117,#115);
#46=PROPERTY_DEFINITION_REPRESENTATION(#118,#119);
#47=GENERAL_PROPERTY_ASSOCIATION('','',#120,#118);
#48=PROPERTY_DEFINITION_REPRESENTATION(#121,#122);
#49=GENERAL_PROPERTY_ASSOCIATION('','',#123,#121);
#50=PROPERTY_DEFINITION_REPRESENTATION(#124,#125);
#51=GENERAL_PROPERTY_ASSOCIATION('','',#126,#124);
#52=PROPERTY_DEFINITION_REPRESENTATION(#127,#128);
#53=GENERAL_PROPERTY_ASSOCIATION('','',#129,#127);
#54=PROPERTY_DEFINITION_REPRESENTATION(#130,#131);
#55=GENERAL_PROPERTY_ASSOCIATION('','',#132,#130);
#56=PROPERTY_DEFINITION_REPRESENTATION(#133,#134);
#57=GENERAL_PROPERTY_ASSOCIATION('','',#135,#133);
#58=PROPERTY_DEFINITION_REPRESENTATION(#136,#137);
#59=GENERAL_PROPERTY_ASSOCIATION('','',#138,#136);
#63=APPLICATION_CONTEXT('CONFIGURATION CONTROLLED 3D DESIGNS OF MECHANICAL PARTS AND ASSEMBLIES');
#64=PRODUCT_CATEGORY('part','NONE');
#65=PRODUCT_RELATED_PRODUCT_CATEGORY('detail',' ',(#74));
#66=CALENDAR_DATE(2023,2,9);
#67=LOCAL_TIME(15,4,24.0,#139);
#68=PERSON_AND_ORGANIZATION(#140,#141);
#69=APPROVAL(#142,'SOLID MODEL');
#70=APPROVAL_ROLE('APPROVED');
#71=SECURITY_CLASSIFICATION('','',#143);
#72=PRODUCT_DEFINITION_FORMATION_WITH_SPECIFIED_SOURCE('A','NONE',#74,.NOT_KNOWN.);
#73=PRODUCT_DEFINITION('','NONE',#72,#1);
#74=PRODUCT('Embout 8 D40','%#@![$ComplementaryPartNumber=BASE08E3047]','Embout 8 D40',(#144));
#75=PRODUCT_DEFINITION_SHAPE('NONE','NONE',#73);
#76=ADVANCED_BREP_SHAPE_REPRESENTATION('1',(#145,#146),#23);
#79=UNCERTAINTY_MEASURE_WITH_UNIT(LENGTH_MEASURE(0.001),#81,'','');
#81= (CONVERSION_BASED_UNIT('MILLIMETRE',#149)LENGTH_UNIT()NAMED_UNIT(#152));
#82= (NAMED_UNIT(#154)PLANE_ANGLE_UNIT()SI_UNIT($,.RADIAN.));
#83= (NAMED_UNIT(#154)SOLID_ANGLE_UNIT()SI_UNIT($,.STERADIAN.));
#85=PROPERTY_DEFINITION('PdmObjectId','',#73);
#86=REPRESENTATION('',(#160),#23);
#87=GENERAL_PROPERTY('','19_8097c7f7-704a-42c3-b548-a5dce55d61c4&5_28_17_17','');
#88=PROPERTY_DEFINITION('Type de production hellomoov','',#73);
#89=REPRESENTATION('',(#161),#23);
#90=GENERAL_PROPERTY('','pi\X2\00E8\X0\ce du stock','');
#91=PROPERTY_DEFINITION('FOURNISSEUR2','',#73);
#92=REPRESENTATION('',(#162),#23);
#93=GENERAL_PROPERTY('','\X2\00E0\X0\ d\X2\00E9\X0\finir','');
#94=PROPERTY_DEFINITION('FOURNISSEUR','',#73);
#95=REPRESENTATION('',(#163),#23);
#96=GENERAL_PROPERTY('','\X2\00E0\X0\ d\X2\00E9\X0\finir','');
#97=PROPERTY_DEFINITION('DESIGNATION_ENG','',#73);
#98=REPRESENTATION('',(#164),#23);
#99=GENERAL_PROPERTY('','','');
#100=PROPERTY_DEFINITION('CODE_TRANSEPT','',#73);
#101=REPRESENTATION('',(#165),#23);
#102=GENERAL_PROPERTY('','-','');
#103=PROPERTY_DEFINITION('CATALOGUE_ID','',#73);
#104=REPRESENTATION('',(#166),#23);
#105=GENERAL_PROPERTY('','0000','');
#106=PROPERTY_DEFINITION('CATALOGUE_LETTRE','',#73);
#107=REPRESENTATION('',(#167),#23);
#108=GENERAL_PROPERTY('','E','');
#109=PROPERTY_DEFINITION('CATALOGUE_LIGNE','',#73);
#110=REPRESENTATION('',(#168),#23);
#111=GENERAL_PROPERTY('','08','');
#112=PROPERTY_DEFINITION('CATALOGUE_PREFIXE','',#73);
#113=REPRESENTATION('',(#169),#23);
#114=GENERAL_PROPERTY('','FIXE','');
#115=PROPERTY_DEFINITION('D\X2\00E9\X0\signation de la finition','',#73);
#116=REPRESENTATION('',(#170),#23);
#117=GENERAL_PROPERTY('','RAL 9017','');
#118=PROPERTY_DEFINITION('Nom de la finition','',#73);
#119=REPRESENTATION('',(#171),#23);
#120=GENERAL_PROPERTY('','RAL 9017 noir signalisation','');
#121=PROPERTY_DEFINITION('D\X2\00E9\X0\signation du mat\X2\00E9\X0\riau','',#73);
#122=REPRESENTATION('',(#172),#23);
#123=GENERAL_PROPERTY('','PA6 GF','');
#124=PROPERTY_DEFINITION('Nom du mat\X2\00E9\X0\riau','',#73);
#125=REPRESENTATION('',(#173),#23);
#126=GENERAL_PROPERTY('','PA6 GF','');
#127=PROPERTY_DEFINITION('Manufacturer','',#73);
#128=REPRESENTATION('',(#174),#23);
#129=GENERAL_PROPERTY('','HELLOMOOV','');
#130=PROPERTY_DEFINITION('CreationDate','',#73);
#131=REPRESENTATION('',(#175),#23);
#132=GENERAL_PROPERTY('','26/09/2023 10:16:50','');
#133=PROPERTY_DEFINITION('Minor Revision','',#73);
#134=REPRESENTATION('',(#176),#23);
#135=GENERAL_PROPERTY('','0','');
#136=PROPERTY_DEFINITION('Complementary Part Number','',#73);
#137=REPRESENTATION('',(#177),#23);
#138=GENERAL_PROPERTY('','BASE08E3047','');
#139=COORDINATED_UNIVERSAL_TIME_OFFSET(1,0,.AHEAD.);
#140=PERSON('','UNSPECIFIED',$,$,$,$);
#141=ORGANIZATION('UNSPECIFIED','UNSPECIFIED','UNSPECIFIED');
#142=APPROVAL_STATUS('approved');
#143=SECURITY_CLASSIFICATION_LEVEL('unclassified');
#144=MECHANICAL_CONTEXT('',#63,'mechanical');
#145=MANIFOLD_SOLID_BREP('1',#178);
#146=AXIS2_PLACEMENT_3D('',#179,#180,#181);
#149=LENGTH_MEASURE_WITH_UNIT(LENGTH_MEASURE(1.0),#182);
#152=DIMENSIONAL_EXPONENTS(1.0,0.0,0.0,0.0,0.0,0.0,0.0);
#154=DIMENSIONAL_EXPONENTS(0.0,0.0,0.0,0.0,0.0,0.0,0.0);
#160=DESCRIPTIVE_REPRESENTATION_ITEM('','19_8097c7f7-704a-42c3-b548-a5dce55d61c4&5_28_17_17');
#161=DESCRIPTIVE_REPRESENTATION_ITEM('','pi\X2\00E8\X0\ce du stock');
#162=DESCRIPTIVE_REPRESENTATION_ITEM('','\X2\00E0\X0\ d\X2\00E9\X0\finir');
#163=DESCRIPTIVE_REPRESENTATION_ITEM('','\X2\00E0\X0\ d\X2\00E9\X0\finir');
#164=DESCRIPTIVE_REPRESENTATION_ITEM('','');
#165=DESCRIPTIVE_REPRESENTATION_ITEM('','-');
#166=DESCRIPTIVE_REPRESENTATION_ITEM('','0000');
#167=DESCRIPTIVE_REPRESENTATION_ITEM('','E');
#168=DESCRIPTIVE_REPRESENTATION_ITEM('','08');
#169=DESCRIPTIVE_REPRESENTATION_ITEM('','FIXE');
#170=DESCRIPTIVE_REPRESENTATION_ITEM('','RAL 9017');
#171=DESCRIPTIVE_REPRESENTATION_ITEM('','RAL 9017 noir signalisation');
#172=DESCRIPTIVE_REPRESENTATION_ITEM('','PA6 GF');
#173=DESCRIPTIVE_REPRESENTATION_ITEM('','PA6 GF');
#174=DESCRIPTIVE_REPRESENTATION_ITEM('','HELLOMOOV');
#175=DESCRIPTIVE_REPRESENTATION_ITEM('','26/09/2023 10:16:50');
#176=DESCRIPTIVE_REPRESENTATION_ITEM('','0');
#177=DESCRIPTIVE_REPRESENTATION_ITEM('','BASE08E3047');
#178=CLOSED_SHELL('',(#183,#184,#185,#186,#187,#188,#189,#190,#191,#192,#193,#194,#195,#196,#197,#198,#199));
#179=CARTESIAN_POINT('',(0.0,0.0,0.0));
#180=DIRECTION('',(0.0,0.0,1.0));
#181=DIRECTION('',(1.0,0.0,0.0));
#182= (NAMED_UNIT(#152)LENGTH_UNIT()SI_UNIT(.MILLI.,.METRE.));
#183=ADVANCED_FACE('',(#201),#202,.F.);
#184=ADVANCED_FACE('',(#203),#204,.F.);
#185=ADVANCED_FACE('',(#205,#206),#207,.T.);
#186=ADVANCED_FACE('',(#208),#209,.F.);
#187=ADVANCED_FACE('',(#210,#211),#212,.T.);
#188=ADVANCED_FACE('',(#213,#214),#215,.T.);
#189=ADVANCED_FACE('',(#216,#217),#218,.T.);
#190=ADVANCED_FACE('',(#219,#220),#221,.F.);
#191=ADVANCED_FACE('',(#222,#223),#224,.F.);
#192=ADVANCED_FACE('',(#225),#226,.F.);
#193=ADVANCED_FACE('',(#227),#228,.F.);
#194=ADVANCED_FACE('',(#229),#230,.T.);
#195=ADVANCED_FACE('',(#231),#232,.T.);
#196=ADVANCED_FACE('',(#233),#234,.T.);
#197=ADVANCED_FACE('',(#235),#236,.T.);
#198=ADVANCED_FACE('',(#237,#238),#239,.F.);
#199=ADVANCED_FACE('',(#240),#241,.F.);
#201=FACE_OUTER_BOUND('',#242,.T.);
#202=PLANE('',#243);
#203=FACE_OUTER_BOUND('',#244,.T.);
#204=PLANE('',#245);
#205=FACE_BOUND('',#246,.T.);
#206=FACE_OUTER_BOUND('',#247,.T.);
#207=PLANE('',#248);
#208=FACE_OUTER_BOUND('',#249,.T.);
#209=PLANE('',#250);
#210=FACE_OUTER_BOUND('',#251,.T.);
#211=FACE_OUTER_BOUND('',#252,.T.);
#212=SURFACE_OF_REVOLUTION('',#253,#254);
#213=FACE_OUTER_BOUND('',#255,.T.);
#214=FACE_OUTER_BOUND('',#256,.T.);
#215=CYLINDRICAL_SURFACE('',#257,20.0);
#216=FACE_BOUND('',#258,.T.);
#217=FACE_OUTER_BOUND('',#259,.T.);
#218=PLANE('',#260);
#219=FACE_OUTER_BOUND('',#261,.T.);
#220=FACE_OUTER_BOUND('',#262,.T.);
#221=CYLINDRICAL_SURFACE('',#263,18.0);
#222=FACE_BOUND('',#264,.T.);
#223=FACE_OUTER_BOUND('',#265,.T.);
#224=PLANE('',#266);
#225=FACE_OUTER_BOUND('',#267,.T.);
#226=PLANE('',#268);
#227=FACE_OUTER_BOUND('',#269,.T.);
#228=PLANE('',#270);
#229=FACE_OUTER_BOUND('',#271,.T.);
#230=CYLINDRICAL_SURFACE('',#272,1.0);
#231=FACE_OUTER_BOUND('',#273,.T.);
#232=CYLINDRICAL_SURFACE('',#274,1.0);
#233=FACE_OUTER_BOUND('',#275,.T.);
#234=CYLINDRICAL_SURFACE('',#276,1.0);
#235=FACE_OUTER_BOUND('',#277,.T.);
#236=CYLINDRICAL_SURFACE('',#278,1.0);
#237=FACE_OUTER_BOUND('',#279,.T.);
#238=FACE_OUTER_BOUND('',#280,.T.);
#239=CYLINDRICAL_SURFACE('',#281,1.25);
#240=FACE_OUTER_BOUND('',#282,.T.);
#241=PLANE('',#283);
#242=EDGE_LOOP('',(#284,#285,#286,#287));
#243=AXIS2_PLACEMENT_3D('',#288,#289,#290);
#244=EDGE_LOOP('',(#291,#292,#293,#294));
#245=AXIS2_PLACEMENT_3D('',#295,#296,#297);
#246=EDGE_LOOP('',(#298));
#247=EDGE_LOOP('',(#299,#300,#301,#302,#303,#304,#305,#306));
#248=AXIS2_PLACEMENT_3D('',#307,#308,#309);
#249=EDGE_LOOP('',(#310,#311));
#250=AXIS2_PLACEMENT_3D('',#312,#313,#314);
#251=EDGE_LOOP('',(#315));
#252=EDGE_LOOP('',(#316,#317));
#253=(B_SPLINE_CURVE(3,(#319,#320,#321,#322,#323,#324,#325),.UNSPECIFIED.,.T.,.F.)B_SPLINE_CURVE_WITH_KNOTS((4,3,4),(0.0,0.5,1.0),.UNSPECIFIED.)RATIONAL_B_SPLINE_CURVE((1.0,0.333333333333333,0.333333333333333,1.0,0.333333333333333,0.333333333333333,1.0))BOUNDED_CURVE()REPRESENTATION_ITEM('')GEOMETRIC_REPRESENTATION_ITEM()CURVE());
#254=AXIS1_PLACEMENT('',#332,#333);
#255=EDGE_LOOP('',(#334));
#256=EDGE_LOOP('',(#335));
#257=AXIS2_PLACEMENT_3D('',#336,#337,#338);
#258=EDGE_LOOP('',(#339));
#259=EDGE_LOOP('',(#340));
#260=AXIS2_PLACEMENT_3D('',#341,#342,#343);
#261=EDGE_LOOP('',(#344));
#262=EDGE_LOOP('',(#345));
#263=AXIS2_PLACEMENT_3D('',#346,#347,#348);
#264=EDGE_LOOP('',(#349,#350,#351,#352,#353,#354,#355,#356));
#265=EDGE_LOOP('',(#357));
#266=AXIS2_PLACEMENT_3D('',#358,#359,#360);
#267=EDGE_LOOP('',(#361,#362,#363,#364));
#268=AXIS2_PLACEMENT_3D('',#365,#366,#367);
#269=EDGE_LOOP('',(#368,#369,#370,#371));
#270=AXIS2_PLACEMENT_3D('',#372,#373,#374);
#271=EDGE_LOOP('',(#375,#376,#377,#378));
#272=AXIS2_PLACEMENT_3D('',#379,#380,#381);
#273=EDGE_LOOP('',(#382,#383,#384,#385));
#274=AXIS2_PLACEMENT_3D('',#386,#387,#388);
#275=EDGE_LOOP('',(#389,#390,#391,#392));
#276=AXIS2_PLACEMENT_3D('',#393,#394,#395);
#277=EDGE_LOOP('',(#396,#397,#398,#399));
#278=AXIS2_PLACEMENT_3D('',#400,#401,#402);
#279=EDGE_LOOP('',(#403));
#280=EDGE_LOOP('',(#404));
#281=AXIS2_PLACEMENT_3D('',#405,#406,#407);
#282=EDGE_LOOP('',(#408));
#283=AXIS2_PLACEMENT_3D('',#409,#410,#411);
#284=ORIENTED_EDGE('',*,*,#412,.F.);
#285=ORIENTED_EDGE('',*,*,#413,.F.);
#286=ORIENTED_EDGE('',*,*,#414,.F.);
#287=ORIENTED_EDGE('',*,*,#415,.T.);
#288=CARTESIAN_POINT('',(-2.0,2.0,-9.0));
#289=DIRECTION('',(0.0,-1.0,0.0));
#290=DIRECTION('',(0.0,0.0,-1.0));
#291=ORIENTED_EDGE('',*,*,#416,.F.);
#292=ORIENTED_EDGE('',*,*,#417,.F.);
#293=ORIENTED_EDGE('',*,*,#418,.F.);
#294=ORIENTED_EDGE('',*,*,#419,.T.);
#295=CARTESIAN_POINT('',(2.0,2.0,-9.0));
#296=DIRECTION('',(-1.0,0.0,0.0));
#297=DIRECTION('',(0.0,0.0,1.0));
#298=ORIENTED_EDGE('',*,*,#420,.T.);
#299=ORIENTED_EDGE('',*,*,#417,.T.);
#300=ORIENTED_EDGE('',*,*,#421,.T.);
#301=ORIENTED_EDGE('',*,*,#422,.T.);
#302=ORIENTED_EDGE('',*,*,#423,.T.);
#303=ORIENTED_EDGE('',*,*,#424,.T.);
#304=ORIENTED_EDGE('',*,*,#425,.T.);
#305=ORIENTED_EDGE('',*,*,#413,.T.);
#306=ORIENTED_EDGE('',*,*,#426,.T.);
#307=CARTESIAN_POINT('',(-2.0,2.0,-9.0));
#308=DIRECTION('',(0.0,0.0,-1.0));
#309=DIRECTION('',(-1.0,0.0,0.0));
#310=ORIENTED_EDGE('',*,*,#427,.F.);
#311=ORIENTED_EDGE('',*,*,#428,.F.);
#312=CARTESIAN_POINT('',(1.53008031592017E-15,0.0,4.0));
#313=DIRECTION('',(0.0,0.0,-1.0));
#314=DIRECTION('',(-1.0,0.0,0.0));
#315=ORIENTED_EDGE('',*,*,#429,.T.);
#316=ORIENTED_EDGE('',*,*,#428,.T.);
#317=ORIENTED_EDGE('',*,*,#427,.T.);
#319=CARTESIAN_POINT('',(-20.0,0.0,2.0));
#320=CARTESIAN_POINT('',(-20.0,0.0,6.0));
#321=CARTESIAN_POINT('',(-16.0,0.0,6.0));
#322=CARTESIAN_POINT('',(-16.0,0.0,2.0));
#323=CARTESIAN_POINT('',(-16.0,0.0,-2.0));
#324=CARTESIAN_POINT('',(-20.0,0.0,-2.0));
#325=CARTESIAN_POINT('',(-20.0,0.0,2.0));
#332=CARTESIAN_POINT('',(1.53008031592017E-15,0.0,2.0));
#333=DIRECTION('',(-0.0,-0.0,1.0));
#334=ORIENTED_EDGE('',*,*,#430,.T.);
#335=ORIENTED_EDGE('',*,*,#429,.F.);
#336=CARTESIAN_POINT('',(1.53008031592017E-15,0.0,4.0));
#337=DIRECTION('',(0.0,0.0,1.0));
#338=DIRECTION('',(1.0,0.0,0.0));
#339=ORIENTED_EDGE('',*,*,#431,.T.);
#340=ORIENTED_EDGE('',*,*,#430,.F.);
#341=CARTESIAN_POINT('',(1.53008031592017E-15,0.0,0.0));
#342=DIRECTION('',(0.0,0.0,-1.0));
#343=DIRECTION('',(-1.0,0.0,0.0));
#344=ORIENTED_EDGE('',*,*,#432,.F.);
#345=ORIENTED_EDGE('',*,*,#431,.F.);
#346=CARTESIAN_POINT('',(1.53008031592017E-15,0.0,2.0));
#347=DIRECTION('',(0.0,0.0,1.0));
#348=DIRECTION('',(1.0,0.0,0.0));
#349=ORIENTED_EDGE('',*,*,#433,.F.);
#350=ORIENTED_EDGE('',*,*,#434,.F.);
#351=ORIENTED_EDGE('',*,*,#435,.F.);
#352=ORIENTED_EDGE('',*,*,#419,.F.);
#353=ORIENTED_EDGE('',*,*,#436,.F.);
#354=ORIENTED_EDGE('',*,*,#415,.F.);
#355=ORIENTED_EDGE('',*,*,#437,.F.);
#356=ORIENTED_EDGE('',*,*,#438,.F.);
#357=ORIENTED_EDGE('',*,*,#432,.T.);
#358=CARTESIAN_POINT('',(1.53008031592017E-15,0.0,2.0));
#359=DIRECTION('',(0.0,0.0,1.0));
#360=DIRECTION('',(1.0,0.0,0.0));
#361=ORIENTED_EDGE('',*,*,#439,.F.);
#362=ORIENTED_EDGE('',*,*,#438,.T.);
#363=ORIENTED_EDGE('',*,*,#440,.F.);
#364=ORIENTED_EDGE('',*,*,#424,.F.);
#365=CARTESIAN_POINT('',(-2.0,-2.0,-9.0));
#366=DIRECTION('',(1.0,0.0,0.0));
#367=DIRECTION('',(0.0,0.0,-1.0));
#368=ORIENTED_EDGE('',*,*,#441,.F.);
#369=ORIENTED_EDGE('',*,*,#422,.F.);
#370=ORIENTED_EDGE('',*,*,#442,.F.);
#371=ORIENTED_EDGE('',*,*,#434,.T.);
#372=CARTESIAN_POINT('',(2.0,-2.0,-9.0));
#373=DIRECTION('',(0.0,1.0,0.0));
#374=DIRECTION('',(0.0,0.0,1.0));
#375=ORIENTED_EDGE('',*,*,#433,.T.);
#376=ORIENTED_EDGE('',*,*,#439,.T.);
#377=ORIENTED_EDGE('',*,*,#423,.F.);
#378=ORIENTED_EDGE('',*,*,#441,.T.);
#379=CARTESIAN_POINT('',(-1.0,-1.0,-9.0));
#380=DIRECTION('',(0.0,0.0,-1.0));
#381=DIRECTION('',(-1.0,0.0,0.0));
#382=ORIENTED_EDGE('',*,*,#437,.T.);
#383=ORIENTED_EDGE('',*,*,#414,.T.);
#384=ORIENTED_EDGE('',*,*,#425,.F.);
#385=ORIENTED_EDGE('',*,*,#440,.T.);
#386=CARTESIAN_POINT('',(-1.0,1.0,-9.0));
#387=DIRECTION('',(0.0,0.0,-1.0));
#388=DIRECTION('',(-1.0,0.0,0.0));
#389=ORIENTED_EDGE('',*,*,#435,.T.);
#390=ORIENTED_EDGE('',*,*,#442,.T.);
#391=ORIENTED_EDGE('',*,*,#421,.F.);
#392=ORIENTED_EDGE('',*,*,#416,.T.);
#393=CARTESIAN_POINT('',(1.0,-1.0,-9.0));
#394=DIRECTION('',(0.0,0.0,-1.0));
#395=DIRECTION('',(-1.0,0.0,0.0));
#396=ORIENTED_EDGE('',*,*,#436,.T.);
#397=ORIENTED_EDGE('',*,*,#418,.T.);
#398=ORIENTED_EDGE('',*,*,#426,.F.);
#399=ORIENTED_EDGE('',*,*,#412,.T.);
#400=CARTESIAN_POINT('',(1.0,1.0,-9.0));
#401=DIRECTION('',(0.0,0.0,-1.0));
#402=DIRECTION('',(-1.0,0.0,0.0));
#403=ORIENTED_EDGE('',*,*,#420,.F.);
#404=ORIENTED_EDGE('',*,*,#443,.F.);
#405=CARTESIAN_POINT('',(1.69309011255337E-15,0.0,-9.0));
#406=DIRECTION('',(0.0,0.0,-1.0));
#407=DIRECTION('',(-1.0,0.0,0.0));
#408=ORIENTED_EDGE('',*,*,#443,.T.);
#409=CARTESIAN_POINT('',(1.53008031592017E-15,0.0,2.0));
#410=DIRECTION('',(0.0,0.0,1.0));
#411=DIRECTION('',(1.0,0.0,0.0));
#412=EDGE_CURVE('',#444,#445,#446,.F.);
#413=EDGE_CURVE('',#447,#444,#448,.T.);
#414=EDGE_CURVE('',#449,#447,#450,.T.);
#415=EDGE_CURVE('',#449,#445,#451,.T.);
#416=EDGE_CURVE('',#452,#453,#454,.T.);
#417=EDGE_CURVE('',#455,#452,#456,.F.);
#418=EDGE_CURVE('',#457,#455,#458,.F.);
#419=EDGE_CURVE('',#457,#453,#459,.F.);
#420=EDGE_CURVE('',#460,#460,#461,.F.);
#421=EDGE_CURVE('',#452,#462,#463,.T.);
#422=EDGE_CURVE('',#462,#464,#465,.F.);
#423=EDGE_CURVE('',#464,#466,#467,.T.);
#424=EDGE_CURVE('',#466,#468,#469,.T.);
#425=EDGE_CURVE('',#468,#447,#470,.T.);
#426=EDGE_CURVE('',#444,#455,#471,.T.);
#427=EDGE_CURVE('',#472,#473,#474,.F.);
#428=EDGE_CURVE('',#473,#472,#475,.F.);
#429=EDGE_CURVE('',#476,#476,#477,.F.);
#430=EDGE_CURVE('',#478,#478,#479,.T.);
#431=EDGE_CURVE('',#480,#480,#481,.T.);
#432=EDGE_CURVE('',#482,#482,#483,.F.);
#433=EDGE_CURVE('',#484,#485,#486,.T.);
#434=EDGE_CURVE('',#487,#484,#488,.F.);
#435=EDGE_CURVE('',#453,#487,#489,.T.);
#436=EDGE_CURVE('',#445,#457,#490,.T.);
#437=EDGE_CURVE('',#491,#449,#492,.T.);
#438=EDGE_CURVE('',#485,#491,#493,.T.);
#439=EDGE_CURVE('',#485,#466,#494,.T.);
#440=EDGE_CURVE('',#468,#491,#495,.F.);
#441=EDGE_CURVE('',#464,#484,#496,.T.);
#442=EDGE_CURVE('',#487,#462,#497,.F.);
#443=EDGE_CURVE('',#498,#498,#499,.T.);
#444=VERTEX_POINT('',#500);
#445=VERTEX_POINT('',#501);
#446=LINE('',#502,#503);
#447=VERTEX_POINT('',#504);
#448=LINE('',#505,#506);
#449=VERTEX_POINT('',#507);
#450=LINE('',#508,#509);
#451=LINE('',#510,#511);
#452=VERTEX_POINT('',#512);
#453=VERTEX_POINT('',#513);
#454=LINE('',#514,#515);
#455=VERTEX_POINT('',#516);
#456=LINE('',#517,#518);
#457=VERTEX_POINT('',#519);
#458=LINE('',#520,#521);
#459=LINE('',#522,#523);
#460=VERTEX_POINT('',#524);
#461=CIRCLE('',#525,1.25);
#462=VERTEX_POINT('',#526);
#463=CIRCLE('',#527,1.0);
#464=VERTEX_POINT('',#528);
#465=LINE('',#529,#530);
#466=VERTEX_POINT('',#531);
#467=CIRCLE('',#532,1.0);
#468=VERTEX_POINT('',#533);
#469=LINE('',#534,#535);
#470=CIRCLE('',#536,1.0);
#471=CIRCLE('',#537,1.0);
#472=VERTEX_POINT('',#538);
#473=VERTEX_POINT('',#539);
#474=(B_SPLINE_CURVE(3,(#541,#542,#543,#544),.UNSPECIFIED.,.F.,.F.)B_SPLINE_CURVE_WITH_KNOTS((4,4),(0.0,1.0),.UNSPECIFIED.)RATIONAL_B_SPLINE_CURVE((1.0,0.333333333333333,0.333333333333333,1.0))BOUNDED_CURVE()REPRESENTATION_ITEM('')GEOMETRIC_REPRESENTATION_ITEM()CURVE());
#475=(B_SPLINE_CURVE(3,(#552,#553,#554,#555),.UNSPECIFIED.,.F.,.F.)B_SPLINE_CURVE_WITH_KNOTS((4,4),(0.0,1.0),.UNSPECIFIED.)RATIONAL_B_SPLINE_CURVE((1.0,0.333333333333334,0.333333333333334,1.0))BOUNDED_CURVE()REPRESENTATION_ITEM('')GEOMETRIC_REPRESENTATION_ITEM()CURVE());
#476=VERTEX_POINT('',#562);
#477=CIRCLE('',#563,20.0);
#478=VERTEX_POINT('',#564);
#479=CIRCLE('',#565,20.0);
#480=VERTEX_POINT('',#566);
#481=CIRCLE('',#567,18.0);
#482=VERTEX_POINT('',#568);
#483=CIRCLE('',#569,18.0);
#484=VERTEX_POINT('',#570);
#485=VERTEX_POINT('',#571);
#486=CIRCLE('',#572,1.0);
#487=VERTEX_POINT('',#573);
#488=LINE('',#574,#575);
#489=CIRCLE('',#576,1.0);
#490=CIRCLE('',#577,1.0);
#491=VERTEX_POINT('',#578);
#492=CIRCLE('',#579,1.0);
#493=LINE('',#580,#581);
#494=LINE('',#582,#583);
#495=LINE('',#584,#585);
#496=LINE('',#586,#587);
#497=LINE('',#588,#589);
#498=VERTEX_POINT('',#590);
#499=CIRCLE('',#591,1.25);
#500=CARTESIAN_POINT('',(1.0,2.0,-9.0));
#501=CARTESIAN_POINT('',(1.0,2.0,2.0));
#502=CARTESIAN_POINT('',(1.0,2.0,-9.0));
#503=VECTOR('',#592,1.0);
#504=CARTESIAN_POINT('',(-1.0,2.0,-9.0));
#505=CARTESIAN_POINT('',(-2.0,2.0,-9.0));
#506=VECTOR('',#593,1.0);
#507=CARTESIAN_POINT('',(-1.0,2.0,2.0));
#508=CARTESIAN_POINT('',(-1.0,2.0,-9.0));
#509=VECTOR('',#594,1.0);
#510=CARTESIAN_POINT('',(1.53008031592017E-15,2.0,2.0));
#511=VECTOR('',#595,1.0);
#512=CARTESIAN_POINT('',(2.0,-1.0,-9.0));
#513=CARTESIAN_POINT('',(2.0,-1.0,2.0));
#514=CARTESIAN_POINT('',(2.0,-1.0,-9.0));
#515=VECTOR('',#596,1.0);
#516=CARTESIAN_POINT('',(2.0,1.0,-9.0));
#517=CARTESIAN_POINT('',(2.0,2.0,-9.0));
#518=VECTOR('',#597,1.0);
#519=CARTESIAN_POINT('',(2.0,1.0,2.0));
#520=CARTESIAN_POINT('',(2.0,1.0,-9.0));
#521=VECTOR('',#598,1.0);
#522=CARTESIAN_POINT('',(2.0,0.0,2.0));
#523=VECTOR('',#599,1.0);
#524=CARTESIAN_POINT('',(-1.25,-3.06161699786838E-16,-9.0));
#525=AXIS2_PLACEMENT_3D('',#600,#601,#602);
#526=CARTESIAN_POINT('',(1.0,-2.0,-9.0));
#527=AXIS2_PLACEMENT_3D('',#603,#604,#605);
#528=CARTESIAN_POINT('',(-1.0,-2.0,-9.0));
#529=CARTESIAN_POINT('',(2.0,-2.0,-9.0));
#530=VECTOR('',#606,1.0);
#531=CARTESIAN_POINT('',(-2.0,-1.0,-9.0));
#532=AXIS2_PLACEMENT_3D('',#607,#608,#609);
#533=CARTESIAN_POINT('',(-2.0,1.0,-9.0));
#534=CARTESIAN_POINT('',(-2.0,-2.0,-9.0));
#535=VECTOR('',#610,1.0);
#536=AXIS2_PLACEMENT_3D('',#611,#612,#613);
#537=AXIS2_PLACEMENT_3D('',#614,#615,#616);
#538=CARTESIAN_POINT('',(-18.0,0.0,4.0));
#539=CARTESIAN_POINT('',(18.0,2.20433511783125E-15,4.0));
#541=CARTESIAN_POINT('',(18.0,-2.97700588707393E-14,4.0));
#542=CARTESIAN_POINT('',(18.0000000000001,36.0,4.0));
#543=CARTESIAN_POINT('',(-18.0,36.0000000000001,4.0));
#544=CARTESIAN_POINT('',(-18.0,0.0,4.0));
#552=CARTESIAN_POINT('',(-18.0,0.0,4.0));
#553=CARTESIAN_POINT('',(-18.0,-35.9999999999999,4.0));
#554=CARTESIAN_POINT('',(17.9999999999999,-36.0,4.0));
#555=CARTESIAN_POINT('',(18.0,-2.97700588707393E-14,4.0));
#562=CARTESIAN_POINT('',(-20.0,-4.89858719658941E-15,2.0));
#563=AXIS2_PLACEMENT_3D('',#617,#618,#619);
#564=CARTESIAN_POINT('',(20.0,0.0,0.0));
#565=AXIS2_PLACEMENT_3D('',#620,#621,#622);
#566=CARTESIAN_POINT('',(18.0,0.0,0.0));
#567=AXIS2_PLACEMENT_3D('',#623,#624,#625);
#568=CARTESIAN_POINT('',(18.0,-4.40872847693047E-15,2.0));
#569=AXIS2_PLACEMENT_3D('',#626,#627,#628);
#570=CARTESIAN_POINT('',(-1.0,-2.0,2.0));
#571=CARTESIAN_POINT('',(-2.0,-1.0,2.0));
#572=AXIS2_PLACEMENT_3D('',#629,#630,#631);
#573=CARTESIAN_POINT('',(1.0,-2.0,2.0));
#574=CARTESIAN_POINT('',(1.53008031592017E-15,-2.0,2.0));
#575=VECTOR('',#632,1.0);
#576=AXIS2_PLACEMENT_3D('',#633,#634,#635);
#577=AXIS2_PLACEMENT_3D('',#636,#637,#638);
#578=CARTESIAN_POINT('',(-2.0,1.0,2.0));
#579=AXIS2_PLACEMENT_3D('',#639,#640,#641);
#580=CARTESIAN_POINT('',(-2.0,0.0,2.0));
#581=VECTOR('',#642,1.0);
#582=CARTESIAN_POINT('',(-2.0,-1.0,-9.0));
#583=VECTOR('',#643,1.0);
#584=CARTESIAN_POINT('',(-2.0,1.0,-9.0));
#585=VECTOR('',#644,1.0);
#586=CARTESIAN_POINT('',(-1.0,-2.0,-9.0));
#587=VECTOR('',#645,1.0);
#588=CARTESIAN_POINT('',(1.0,-2.0,-9.0));
#589=VECTOR('',#646,1.0);
#590=CARTESIAN_POINT('',(-1.25,0.0,2.0));
#591=AXIS2_PLACEMENT_3D('',#647,#648,#649);
#592=DIRECTION('',(0.0,0.0,-1.0));
#593=DIRECTION('',(1.0,0.0,0.0));
#594=DIRECTION('',(0.0,0.0,-1.0));
#595=DIRECTION('',(1.0,0.0,0.0));
#596=DIRECTION('',(0.0,0.0,1.0));
#597=DIRECTION('',(0.0,1.0,0.0));
#598=DIRECTION('',(0.0,0.0,1.0));
#599=DIRECTION('',(0.0,1.0,0.0));
#600=CARTESIAN_POINT('',(1.69309011255337E-15,0.0,-9.0));
#601=DIRECTION('',(0.0,0.0,-1.0));
#602=DIRECTION('',(-1.0,0.0,0.0));
#603=CARTESIAN_POINT('',(1.0,-1.0,-9.0));
#604=DIRECTION('',(0.0,0.0,-1.0));
#605=DIRECTION('',(-1.0,0.0,0.0));
#606=DIRECTION('',(1.0,0.0,0.0));
#607=CARTESIAN_POINT('',(-1.0,-1.0,-9.0));
#608=DIRECTION('',(0.0,0.0,-1.0));
#609=DIRECTION('',(-1.0,0.0,0.0));
#610=DIRECTION('',(0.0,1.0,0.0));
#611=CARTESIAN_POINT('',(-1.0,1.0,-9.0));
#612=DIRECTION('',(0.0,0.0,-1.0));
#613=DIRECTION('',(-1.0,0.0,0.0));
#614=CARTESIAN_POINT('',(1.0,1.0,-9.0));
#615=DIRECTION('',(0.0,0.0,-1.0));
#616=DIRECTION('',(-1.0,0.0,0.0));
#617=CARTESIAN_POINT('',(1.53008031592017E-15,0.0,2.0));
#618=DIRECTION('',(0.0,0.0,-1.0));
#619=DIRECTION('',(-1.0,0.0,0.0));
#620=CARTESIAN_POINT('',(1.53008031592017E-15,0.0,0.0));
#621=DIRECTION('',(0.0,0.0,1.0));
#622=DIRECTION('',(1.0,0.0,0.0));
#623=CARTESIAN_POINT('',(1.53008031592017E-15,0.0,0.0));
#624=DIRECTION('',(0.0,0.0,1.0));
#625=DIRECTION('',(1.0,0.0,0.0));
#626=CARTESIAN_POINT('',(1.53008031592017E-15,0.0,2.0));
#627=DIRECTION('',(0.0,0.0,1.0));
#628=DIRECTION('',(1.0,0.0,0.0));
#629=CARTESIAN_POINT('',(-1.0,-1.0,2.0));
#630=DIRECTION('',(0.0,0.0,-1.0));
#631=DIRECTION('',(-1.0,0.0,0.0));
#632=DIRECTION('',(1.0,0.0,0.0));
#633=CARTESIAN_POINT('',(1.0,-1.0,2.0));
#634=DIRECTION('',(0.0,0.0,-1.0));
#635=DIRECTION('',(-1.0,0.0,0.0));
#636=CARTESIAN_POINT('',(1.0,1.0,2.0));
#637=DIRECTION('',(0.0,0.0,-1.0));
#638=DIRECTION('',(-1.0,0.0,0.0));
#639=CARTESIAN_POINT('',(-1.0,1.0,2.0));
#640=DIRECTION('',(0.0,0.0,-1.0));
#641=DIRECTION('',(-1.0,0.0,0.0));
#642=DIRECTION('',(0.0,1.0,0.0));
#643=DIRECTION('',(0.0,0.0,-1.0));
#644=DIRECTION('',(0.0,0.0,-1.0));
#645=DIRECTION('',(0.0,0.0,1.0));
#646=DIRECTION('',(0.0,0.0,1.0));
#647=CARTESIAN_POINT('',(1.69309011255337E-15,0.0,2.0));
#648=DIRECTION('',(0.0,0.0,-1.0));
#649=DIRECTION('',(-1.0,0.0,0.0));
ENDSEC;
END-ISO-10303-21;
