ISO-10303-21;
HEADER;
FILE_DESCRIPTION(('STEP AP203'),'1');
FILE_NAME('BASE08N1052.stp','2023-10-23T09:27:45',(' '),(' '),'Spatial InterOp 3D',' ',' ');
FILE_SCHEMA(('CONFIG_CONTROL_DESIGN'));
ENDSEC;
DATA;
#1=DESIGN_CONTEXT('',#69,'design');
#2=APPLICATION_PROTOCOL_DEFINITION('INTERNATIONAL STANDARD','config_control_design',1994,#69);
#3=PRODUCT_CATEGORY_RELATIONSHIP('NONE','NONE',#70,#71);
#4=DATE_AND_TIME(#72,#73);
#5=DATE_TIME_ROLE('creation_date');
#6=DATE_TIME_ROLE('classification_date');
#7=PERSON_AND_ORGANIZATION_ROLE('creator');
#8=PERSON_AND_ORGANIZATION_ROLE('design_supplier');
#9=PERSON_AND_ORGANIZATION_ROLE('classification_officer');
#10=PERSON_AND_ORGANIZATION_ROLE('design_owner');
#11=APPROVAL_PERSON_ORGANIZATION(#74,#75,#76);
#12=APPROVAL_DATE_TIME(#4,#75);
#13=CC_DESIGN_APPROVAL(#75,(#77,#78,#79));
#14=CC_DESIGN_DATE_AND_TIME_ASSIGNMENT(#4,#5,(#79));
#15=CC_DESIGN_DATE_AND_TIME_ASSIGNMENT(#4,#6,(#77));
#16=CC_DESIGN_PERSON_AND_ORGANIZATION_ASSIGNMENT(#74,#10,(#80));
#17=CC_DESIGN_PERSON_AND_ORGANIZATION_ASSIGNMENT(#74,#7,(#79));
#18=CC_DESIGN_PERSON_AND_ORGANIZATION_ASSIGNMENT(#74,#7,(#78));
#19=CC_DESIGN_PERSON_AND_ORGANIZATION_ASSIGNMENT(#74,#8,(#78));
#20=CC_DESIGN_SECURITY_CLASSIFICATION(#77,(#78));
#21=CC_DESIGN_PERSON_AND_ORGANIZATION_ASSIGNMENT(#74,#9,(#77));
#22=SHAPE_DEFINITION_REPRESENTATION(#81,#82);
#23= (GEOMETRIC_REPRESENTATION_CONTEXT(3)GLOBAL_UNCERTAINTY_ASSIGNED_CONTEXT((#85))GLOBAL_UNIT_ASSIGNED_CONTEXT((#87,#88,#89))REPRESENTATION_CONTEXT('NONE','WORKSPACE'));
#24=PROPERTY_DEFINITION_REPRESENTATION(#91,#92);
#25=GENERAL_PROPERTY_ASSOCIATION('','',#93,#91);
#26=PROPERTY_DEFINITION_REPRESENTATION(#94,#95);
#27=GENERAL_PROPERTY_ASSOCIATION('','',#96,#94);
#28=PROPERTY_DEFINITION_REPRESENTATION(#97,#98);
#29=GENERAL_PROPERTY_ASSOCIATION('','',#99,#97);
#30=PROPERTY_DEFINITION_REPRESENTATION(#100,#101);
#31=GENERAL_PROPERTY_ASSOCIATION('','',#102,#100);
#32=PROPERTY_DEFINITION_REPRESENTATION(#103,#104);
#33=GENERAL_PROPERTY_ASSOCIATION('','',#105,#103);
#34=PROPERTY_DEFINITION_REPRESENTATION(#106,#107);
#35=GENERAL_PROPERTY_ASSOCIATION('','',#108,#106);
#36=PROPERTY_DEFINITION_REPRESENTATION(#109,#110);
#37=GENERAL_PROPERTY_ASSOCIATION('','',#111,#109);
#38=PROPERTY_DEFINITION_REPRESENTATION(#112,#113);
#39=GENERAL_PROPERTY_ASSOCIATION('','',#114,#112);
#40=PROPERTY_DEFINITION_REPRESENTATION(#115,#116);
#41=GENERAL_PROPERTY_ASSOCIATION('','',#117,#115);
#42=PROPERTY_DEFINITION_REPRESENTATION(#118,#119);
#43=GENERAL_PROPERTY_ASSOCIATION('','',#120,#118);
#44=PROPERTY_DEFINITION_REPRESENTATION(#121,#122);
#45=GENERAL_PROPERTY_ASSOCIATION('','',#123,#121);
#46=PROPERTY_DEFINITION_REPRESENTATION(#124,#125);
#47=GENERAL_PROPERTY_ASSOCIATION('','',#126,#124);
#48=PROPERTY_DEFINITION_REPRESENTATION(#127,#128);
#49=GENERAL_PROPERTY_ASSOCIATION('','',#129,#127);
#50=PROPERTY_DEFINITION_REPRESENTATION(#130,#131);
#51=GENERAL_PROPERTY_ASSOCIATION('','',#132,#130);
#52=PROPERTY_DEFINITION_REPRESENTATION(#133,#134);
#53=GENERAL_PROPERTY_ASSOCIATION('','',#135,#133);
#54=PROPERTY_DEFINITION_REPRESENTATION(#136,#137);
#55=GENERAL_PROPERTY_ASSOCIATION('','',#138,#136);
#56=PROPERTY_DEFINITION_REPRESENTATION(#139,#140);
#57=GENERAL_PROPERTY_ASSOCIATION('','',#141,#139);
#58=PROPERTY_DEFINITION_REPRESENTATION(#142,#143);
#59=GENERAL_PROPERTY_ASSOCIATION('','',#144,#142);
#60=PROPERTY_DEFINITION_REPRESENTATION(#145,#146);
#61=GENERAL_PROPERTY_ASSOCIATION('','',#147,#145);
#62=PROPERTY_DEFINITION_REPRESENTATION(#148,#149);
#63=GENERAL_PROPERTY_ASSOCIATION('','',#150,#148);
#64=PROPERTY_DEFINITION_REPRESENTATION(#151,#152);
#65=GENERAL_PROPERTY_ASSOCIATION('','',#153,#151);
#69=APPLICATION_CONTEXT('CONFIGURATION CONTROLLED 3D DESIGNS OF MECHANICAL PARTS AND ASSEMBLIES');
#70=PRODUCT_CATEGORY('part','NONE');
#71=PRODUCT_RELATED_PRODUCT_CATEGORY('detail',' ',(#80));
#72=CALENDAR_DATE(2023,23,9);
#73=LOCAL_TIME(11,27,45.0,#154);
#74=PERSON_AND_ORGANIZATION(#155,#156);
#75=APPROVAL(#157,'SOLID MODEL');
#76=APPROVAL_ROLE('APPROVED');
#77=SECURITY_CLASSIFICATION('','',#158);
#78=PRODUCT_DEFINITION_FORMATION_WITH_SPECIFIED_SOURCE('A','NONE',#80,.NOT_KNOWN.);
#79=PRODUCT_DEFINITION('','NONE',#78,#1);
#80=PRODUCT('Embout 8 45x32 noir','%#@![CATALOGUE - PREFIXE=BASE][CATALOGUE - GAMME=08][CATALOGUE - LETTRE=N][CATALOGUE - ID=1052]','Embout 8 45x32 noir',(#159));
#81=PRODUCT_DEFINITION_SHAPE('NONE','NONE',#79);
#82=ADVANCED_BREP_SHAPE_REPRESENTATION('1',(#160,#161),#23);
#85=UNCERTAINTY_MEASURE_WITH_UNIT(LENGTH_MEASURE(0.001),#87,'','');
#87= (CONVERSION_BASED_UNIT('MILLIMETRE',#164)LENGTH_UNIT()NAMED_UNIT(#167));
#88= (NAMED_UNIT(#169)PLANE_ANGLE_UNIT()SI_UNIT($,.RADIAN.));
#89= (NAMED_UNIT(#169)SOLID_ANGLE_UNIT()SI_UNIT($,.STERADIAN.));
#91=PROPERTY_DEFINITION('PdmObjectId','',#79);
#92=REPRESENTATION('',(#175),#23);
#93=GENERAL_PROPERTY('','37_c39a1382-1558-4060-8d57-10adfe44dbc1&3_5596_0_36','');
#94=PROPERTY_DEFINITION('Type de production hellomoov','',#79);
#95=REPRESENTATION('',(#176),#23);
#96=GENERAL_PROPERTY('','pi\X2\00E8\X0\ce du stock','');
#97=PROPERTY_DEFINITION('CATALOGUE - ID','',#79);
#98=REPRESENTATION('',(#177),#23);
#99=GENERAL_PROPERTY('','1052','');
#100=PROPERTY_DEFINITION('CATALOGUE - LETTRE','',#79);
#101=REPRESENTATION('',(#178),#23);
#102=GENERAL_PROPERTY('','N','');
#103=PROPERTY_DEFINITION('CATALOGUE - PREFIXE','',#79);
#104=REPRESENTATION('',(#179),#23);
#105=GENERAL_PROPERTY('','BASE','');
#106=PROPERTY_DEFINITION('CATALOGUE - GAMME','',#79);
#107=REPRESENTATION('',(#180),#23);
#108=GENERAL_PROPERTY('','08','');
#109=PROPERTY_DEFINITION('ETAT_SURFACE','',#79);
#110=REPRESENTATION('',(#181),#23);
#111=GENERAL_PROPERTY('','-','');
#112=PROPERTY_DEFINITION('DESIGNATION_ENG','',#79);
#113=REPRESENTATION('',(#182),#23);
#114=GENERAL_PROPERTY('','End cap 8 45x32 black','');
#115=PROPERTY_DEFINITION('CODE_ELCOM','',#79);
#116=REPRESENTATION('',(#183),#23);
#117=GENERAL_PROPERTY('','-','');
#118=PROPERTY_DEFINITION('TRAITEMENT)','',#79);
#119=REPRESENTATION('',(#184),#23);
#120=GENERAL_PROPERTY('','Non sp\X2\00E9\X0\cifi\X2\00E9\X0\','');
#121=PROPERTY_DEFINITION('TOLERANCES_GENERALES','',#79);
#122=REPRESENTATION('',(#185),#23);
#123=GENERAL_PROPERTY('','\X2\00E0\X0\ d\X2\00E9\X0\finir','');
#124=PROPERTY_DEFINITION('TOLERANCES_BORDS','',#79);
#125=REPRESENTATION('',(#186),#23);
#126=GENERAL_PROPERTY('','ISO 13715','');
#127=PROPERTY_DEFINITION('CODE_TRANSEPT','',#79);
#128=REPRESENTATION('',(#187),#23);
#129=GENERAL_PROPERTY('','AK845X32','');
#130=PROPERTY_DEFINITION('FOURNISSEUR2','',#79);
#131=REPRESENTATION('',(#188),#23);
#132=GENERAL_PROPERTY('','\X2\00E0\X0\ d\X2\00E9\X0\finir','');
#133=PROPERTY_DEFINITION('FOURNISSEUR','',#79);
#134=REPRESENTATION('',(#189),#23);
#135=GENERAL_PROPERTY('','\X2\00E0\X0\ d\X2\00E9\X0\finir','');
#136=PROPERTY_DEFINITION('D\X2\00E9\X0\signation du mat\X2\00E9\X0\riau','',#79);
#137=REPRESENTATION('',(#190),#23);
#138=GENERAL_PROPERTY('','Polyamide 6-6 - Black','');
#139=PROPERTY_DEFINITION('Nom du mat\X2\00E9\X0\riau','',#79);
#140=REPRESENTATION('',(#191),#23);
#141=GENERAL_PROPERTY('','Polyamide 6-6 - Black','');
#142=PROPERTY_DEFINITION('Manufacturer','',#79);
#143=REPRESENTATION('',(#192),#23);
#144=GENERAL_PROPERTY('','HELLOMOOV','');
#145=PROPERTY_DEFINITION('CreationDate','',#79);
#146=REPRESENTATION('',(#193),#23);
#147=GENERAL_PROPERTY('','13/04/2022 07:56:51','');
#148=PROPERTY_DEFINITION('Minor Revision','',#79);
#149=REPRESENTATION('',(#194),#23);
#150=GENERAL_PROPERTY('','11','');
#151=PROPERTY_DEFINITION('Comment','',#79);
#152=REPRESENTATION('',(#195),#23);
#153=GENERAL_PROPERTY('','ligne 8-45','');
#154=COORDINATED_UNIVERSAL_TIME_OFFSET(1,0,.AHEAD.);
#155=PERSON('','UNSPECIFIED',$,$,$,$);
#156=ORGANIZATION('UNSPECIFIED','UNSPECIFIED','UNSPECIFIED');
#157=APPROVAL_STATUS('approved');
#158=SECURITY_CLASSIFICATION_LEVEL('unclassified');
#159=MECHANICAL_CONTEXT('',#69,'mechanical');
#160=MANIFOLD_SOLID_BREP('1',#196);
#161=AXIS2_PLACEMENT_3D('',#197,#198,#199);
#164=LENGTH_MEASURE_WITH_UNIT(LENGTH_MEASURE(1.0),#200);
#167=DIMENSIONAL_EXPONENTS(1.0,0.0,0.0,0.0,0.0,0.0,0.0);
#169=DIMENSIONAL_EXPONENTS(0.0,0.0,0.0,0.0,0.0,0.0,0.0);
#175=DESCRIPTIVE_REPRESENTATION_ITEM('','37_c39a1382-1558-4060-8d57-10adfe44dbc1&3_5596_0_36');
#176=DESCRIPTIVE_REPRESENTATION_ITEM('','pi\X2\00E8\X0\ce du stock');
#177=DESCRIPTIVE_REPRESENTATION_ITEM('','1052');
#178=DESCRIPTIVE_REPRESENTATION_ITEM('','N');
#179=DESCRIPTIVE_REPRESENTATION_ITEM('','BASE');
#180=DESCRIPTIVE_REPRESENTATION_ITEM('','08');
#181=DESCRIPTIVE_REPRESENTATION_ITEM('','-');
#182=DESCRIPTIVE_REPRESENTATION_ITEM('','End cap 8 45x32 black');
#183=DESCRIPTIVE_REPRESENTATION_ITEM('','-');
#184=DESCRIPTIVE_REPRESENTATION_ITEM('','Non sp\X2\00E9\X0\cifi\X2\00E9\X0\');
#185=DESCRIPTIVE_REPRESENTATION_ITEM('','\X2\00E0\X0\ d\X2\00E9\X0\finir');
#186=DESCRIPTIVE_REPRESENTATION_ITEM('','ISO 13715');
#187=DESCRIPTIVE_REPRESENTATION_ITEM('','AK845X32');
#188=DESCRIPTIVE_REPRESENTATION_ITEM('','\X2\00E0\X0\ d\X2\00E9\X0\finir');
#189=DESCRIPTIVE_REPRESENTATION_ITEM('','\X2\00E0\X0\ d\X2\00E9\X0\finir');
#190=DESCRIPTIVE_REPRESENTATION_ITEM('','Polyamide 6-6 - Black');
#191=DESCRIPTIVE_REPRESENTATION_ITEM('','Polyamide 6-6 - Black');
#192=DESCRIPTIVE_REPRESENTATION_ITEM('','HELLOMOOV');
#193=DESCRIPTIVE_REPRESENTATION_ITEM('','13/04/2022 07:56:51');
#194=DESCRIPTIVE_REPRESENTATION_ITEM('','11');
#195=DESCRIPTIVE_REPRESENTATION_ITEM('','ligne 8-45');
#196=CLOSED_SHELL('',(#201,#202,#203,#204,#205,#206,#207,#208,#209,#210,#211,#212,#213,#214,#215,#216,#217,#218,#219,#220,#221,#222));
#197=CARTESIAN_POINT('',(0.0,0.0,0.0));
#198=DIRECTION('',(0.0,0.0,1.0));
#199=DIRECTION('',(1.0,0.0,0.0));
#200= (NAMED_UNIT(#167)LENGTH_UNIT()SI_UNIT(.MILLI.,.METRE.));
#201=ADVANCED_FACE('',(#224,#225),#226,.T.);
#202=ADVANCED_FACE('',(#227),#228,.T.);
#203=ADVANCED_FACE('',(#229),#230,.T.);
#204=ADVANCED_FACE('',(#231),#232,.T.);
#205=ADVANCED_FACE('',(#233),#234,.T.);
#206=ADVANCED_FACE('',(#235),#236,.T.);
#207=ADVANCED_FACE('',(#237),#238,.T.);
#208=ADVANCED_FACE('',(#239),#240,.T.);
#209=ADVANCED_FACE('',(#241),#242,.T.);
#210=ADVANCED_FACE('',(#243),#244,.T.);
#211=ADVANCED_FACE('',(#245),#246,.T.);
#212=ADVANCED_FACE('',(#247),#248,.T.);
#213=ADVANCED_FACE('',(#249),#250,.T.);
#214=ADVANCED_FACE('',(#251),#252,.T.);
#215=ADVANCED_FACE('',(#253),#254,.T.);
#216=ADVANCED_FACE('',(#255),#256,.T.);
#217=ADVANCED_FACE('',(#257),#258,.T.);
#218=ADVANCED_FACE('',(#259),#260,.F.);
#219=ADVANCED_FACE('',(#261,#262,#263),#264,.T.);
#220=ADVANCED_FACE('',(#265),#266,.T.);
#221=ADVANCED_FACE('',(#267),#268,.T.);
#222=ADVANCED_FACE('',(#269,#270),#271,.T.);
#224=FACE_OUTER_BOUND('',#272,.T.);
#225=FACE_OUTER_BOUND('',#273,.T.);
#226=CYLINDRICAL_SURFACE('',#274,5.75);
#227=FACE_OUTER_BOUND('',#275,.T.);
#228=PLANE('',#276);
#229=FACE_OUTER_BOUND('',#277,.T.);
#230=PLANE('',#278);
#231=FACE_OUTER_BOUND('',#279,.T.);
#232=PLANE('',#280);
#233=FACE_OUTER_BOUND('',#281,.T.);
#234=PLANE('',#282);
#235=FACE_OUTER_BOUND('',#283,.T.);
#236=CYLINDRICAL_SURFACE('',#284,2.0);
#237=FACE_OUTER_BOUND('',#285,.T.);
#238=SPHERICAL_SURFACE('',#286,2.0);
#239=FACE_OUTER_BOUND('',#287,.T.);
#240=CYLINDRICAL_SURFACE('',#288,2.0);
#241=FACE_OUTER_BOUND('',#289,.T.);
#242=CYLINDRICAL_SURFACE('',#290,2.0);
#243=FACE_OUTER_BOUND('',#291,.T.);
#244=SPHERICAL_SURFACE('',#292,2.0);
#245=FACE_OUTER_BOUND('',#293,.T.);
#246=SPHERICAL_SURFACE('',#294,2.0);
#247=FACE_OUTER_BOUND('',#295,.T.);
#248=CYLINDRICAL_SURFACE('',#296,2.0);
#249=FACE_OUTER_BOUND('',#297,.T.);
#250=CYLINDRICAL_SURFACE('',#298,2.0);
#251=FACE_OUTER_BOUND('',#299,.T.);
#252=CYLINDRICAL_SURFACE('',#300,2.0);
#253=FACE_OUTER_BOUND('',#301,.T.);
#254=CYLINDRICAL_SURFACE('',#302,2.0);
#255=FACE_OUTER_BOUND('',#303,.T.);
#256=SPHERICAL_SURFACE('',#304,2.0);
#257=FACE_OUTER_BOUND('',#305,.T.);
#258=CYLINDRICAL_SURFACE('',#306,2.0);
#259=FACE_OUTER_BOUND('',#307,.T.);
#260=PLANE('',#308);
#261=FACE_BOUND('',#309,.T.);
#262=FACE_BOUND('',#310,.T.);
#263=FACE_OUTER_BOUND('',#311,.T.);
#264=PLANE('',#312);
#265=FACE_OUTER_BOUND('',#313,.T.);
#266=PLANE('',#314);
#267=FACE_OUTER_BOUND('',#315,.T.);
#268=PLANE('',#316);
#269=FACE_OUTER_BOUND('',#317,.T.);
#270=FACE_OUTER_BOUND('',#318,.T.);
#271=CYLINDRICAL_SURFACE('',#319,5.75);
#272=EDGE_LOOP('',(#320));
#273=EDGE_LOOP('',(#321));
#274=AXIS2_PLACEMENT_3D('',#322,#323,#324);
#275=EDGE_LOOP('',(#325));
#276=AXIS2_PLACEMENT_3D('',#326,#327,#328);
#277=EDGE_LOOP('',(#329));
#278=AXIS2_PLACEMENT_3D('',#330,#331,#332);
#279=EDGE_LOOP('',(#333,#334,#335,#336));
#280=AXIS2_PLACEMENT_3D('',#337,#338,#339);
#281=EDGE_LOOP('',(#340,#341,#342,#343));
#282=AXIS2_PLACEMENT_3D('',#344,#345,#346);
#283=EDGE_LOOP('',(#347,#348,#349,#350));
#284=AXIS2_PLACEMENT_3D('',#351,#352,#353);
#285=EDGE_LOOP('',(#354,#355,#356));
#286=AXIS2_PLACEMENT_3D('',#357,#358,#359);
#287=EDGE_LOOP('',(#360,#361,#362,#363));
#288=AXIS2_PLACEMENT_3D('',#364,#365,#366);
#289=EDGE_LOOP('',(#367,#368,#369,#370));
#290=AXIS2_PLACEMENT_3D('',#371,#372,#373);
#291=EDGE_LOOP('',(#374,#375,#376));
#292=AXIS2_PLACEMENT_3D('',#377,#378,#379);
#293=EDGE_LOOP('',(#380,#381,#382));
#294=AXIS2_PLACEMENT_3D('',#383,#384,#385);
#295=EDGE_LOOP('',(#386,#387,#388,#389));
#296=AXIS2_PLACEMENT_3D('',#390,#391,#392);
#297=EDGE_LOOP('',(#393,#394,#395,#396));
#298=AXIS2_PLACEMENT_3D('',#397,#398,#399);
#299=EDGE_LOOP('',(#400,#401,#402,#403));
#300=AXIS2_PLACEMENT_3D('',#404,#405,#406);
#301=EDGE_LOOP('',(#407,#408,#409,#410));
#302=AXIS2_PLACEMENT_3D('',#411,#412,#413);
#303=EDGE_LOOP('',(#414,#415,#416));
#304=AXIS2_PLACEMENT_3D('',#417,#418,#419);
#305=EDGE_LOOP('',(#420,#421,#422,#423));
#306=AXIS2_PLACEMENT_3D('',#424,#425,#426);
#307=EDGE_LOOP('',(#427,#428,#429,#430));
#308=AXIS2_PLACEMENT_3D('',#431,#432,#433);
#309=EDGE_LOOP('',(#434));
#310=EDGE_LOOP('',(#435));
#311=EDGE_LOOP('',(#436,#437,#438,#439,#440,#441,#442,#443));
#312=AXIS2_PLACEMENT_3D('',#444,#445,#446);
#313=EDGE_LOOP('',(#447,#448,#449,#450));
#314=AXIS2_PLACEMENT_3D('',#451,#452,#453);
#315=EDGE_LOOP('',(#454,#455,#456,#457));
#316=AXIS2_PLACEMENT_3D('',#458,#459,#460);
#317=EDGE_LOOP('',(#461));
#318=EDGE_LOOP('',(#462));
#319=AXIS2_PLACEMENT_3D('',#463,#464,#465);
#320=ORIENTED_EDGE('',*,*,#466,.T.);
#321=ORIENTED_EDGE('',*,*,#467,.F.);
#322=CARTESIAN_POINT('',(-8.5,13.0,2.5));
#323=DIRECTION('',(0.0,0.0,1.0));
#324=DIRECTION('',(1.0,0.0,0.0));
#325=ORIENTED_EDGE('',*,*,#467,.T.);
#326=CARTESIAN_POINT('',(-8.5,13.0,12.5));
#327=DIRECTION('',(0.0,0.0,1.0));
#328=DIRECTION('',(1.0,0.0,0.0));
#329=ORIENTED_EDGE('',*,*,#468,.T.);
#330=CARTESIAN_POINT('',(-8.5,-13.0,12.5));
#331=DIRECTION('',(0.0,0.0,1.0));
#332=DIRECTION('',(1.0,0.0,0.0));
#333=ORIENTED_EDGE('',*,*,#469,.T.);
#334=ORIENTED_EDGE('',*,*,#470,.T.);
#335=ORIENTED_EDGE('',*,*,#471,.F.);
#336=ORIENTED_EDGE('',*,*,#472,.T.);
#337=CARTESIAN_POINT('',(-16.0,0.0,0.0));
#338=DIRECTION('',(-1.0,-6.12303176911189E-17,0.0));
#339=DIRECTION('',(6.12303176911189E-17,-1.0,0.0));
#340=ORIENTED_EDGE('',*,*,#473,.T.);
#341=ORIENTED_EDGE('',*,*,#474,.T.);
#342=ORIENTED_EDGE('',*,*,#475,.F.);
#343=ORIENTED_EDGE('',*,*,#476,.T.);
#344=CARTESIAN_POINT('',(0.0,-22.5,0.0));
#345=DIRECTION('',(0.0,-1.0,0.0));
#346=DIRECTION('',(1.0,0.0,0.0));
#347=ORIENTED_EDGE('',*,*,#477,.T.);
#348=ORIENTED_EDGE('',*,*,#478,.F.);
#349=ORIENTED_EDGE('',*,*,#479,.F.);
#350=ORIENTED_EDGE('',*,*,#474,.F.);
#351=CARTESIAN_POINT('',(14.0,-20.5,0.0));
#352=DIRECTION('',(0.0,0.0,1.0));
#353=DIRECTION('',(1.0,0.0,0.0));
#354=ORIENTED_EDGE('',*,*,#480,.T.);
#355=ORIENTED_EDGE('',*,*,#481,.T.);
#356=ORIENTED_EDGE('',*,*,#477,.F.);
#357=CARTESIAN_POINT('',(14.0,-20.5,2.0));
#358=DIRECTION('',(0.0,0.0,-1.0));
#359=DIRECTION('',(-1.0,0.0,0.0));
#360=ORIENTED_EDGE('',*,*,#482,.T.);
#361=ORIENTED_EDGE('',*,*,#483,.F.);
#362=ORIENTED_EDGE('',*,*,#480,.F.);
#363=ORIENTED_EDGE('',*,*,#473,.F.);
#364=CARTESIAN_POINT('',(0.0,-20.5,2.0));
#365=DIRECTION('',(-1.0,0.0,0.0));
#366=DIRECTION('',(0.0,0.0,1.0));
#367=ORIENTED_EDGE('',*,*,#484,.T.);
#368=ORIENTED_EDGE('',*,*,#485,.F.);
#369=ORIENTED_EDGE('',*,*,#481,.F.);
#370=ORIENTED_EDGE('',*,*,#486,.F.);
#371=CARTESIAN_POINT('',(14.0,1.22460635382238E-16,2.0));
#372=DIRECTION('',(-6.12303176911189E-17,-1.0,0.0));
#373=DIRECTION('',(1.0,-6.12303176911189E-17,0.0));
#374=ORIENTED_EDGE('',*,*,#487,.T.);
#375=ORIENTED_EDGE('',*,*,#488,.T.);
#376=ORIENTED_EDGE('',*,*,#482,.F.);
#377=CARTESIAN_POINT('',(-14.0,-20.5,2.0));
#378=DIRECTION('',(-1.0,0.0,0.0));
#379=DIRECTION('',(0.0,0.0,1.0));
#380=ORIENTED_EDGE('',*,*,#489,.T.);
#381=ORIENTED_EDGE('',*,*,#490,.T.);
#382=ORIENTED_EDGE('',*,*,#484,.F.);
#383=CARTESIAN_POINT('',(14.0,20.5,2.0));
#384=DIRECTION('',(0.0,1.0,0.0));
#385=DIRECTION('',(0.0,0.0,1.0));
#386=ORIENTED_EDGE('',*,*,#491,.F.);
#387=ORIENTED_EDGE('',*,*,#470,.F.);
#388=ORIENTED_EDGE('',*,*,#487,.F.);
#389=ORIENTED_EDGE('',*,*,#476,.F.);
#390=CARTESIAN_POINT('',(-14.0,-20.5,0.0));
#391=DIRECTION('',(0.0,0.0,1.0));
#392=DIRECTION('',(1.0,0.0,0.0));
#393=ORIENTED_EDGE('',*,*,#492,.T.);
#394=ORIENTED_EDGE('',*,*,#493,.F.);
#395=ORIENTED_EDGE('',*,*,#488,.F.);
#396=ORIENTED_EDGE('',*,*,#469,.F.);
#397=CARTESIAN_POINT('',(-14.0,1.22460635382238E-16,2.0));
#398=DIRECTION('',(-6.12303176911189E-17,1.0,0.0));
#399=DIRECTION('',(-1.0,-6.12303176911189E-17,0.0));
#400=ORIENTED_EDGE('',*,*,#494,.T.);
#401=ORIENTED_EDGE('',*,*,#495,.F.);
#402=ORIENTED_EDGE('',*,*,#489,.F.);
#403=ORIENTED_EDGE('',*,*,#496,.F.);
#404=CARTESIAN_POINT('',(2.44921270764476E-16,20.5,2.0));
#405=DIRECTION('',(1.0,1.22460635382238E-16,0.0));
#406=DIRECTION('',(-1.22460635382238E-16,1.0,0.0));
#407=ORIENTED_EDGE('',*,*,#497,.F.);
#408=ORIENTED_EDGE('',*,*,#498,.F.);
#409=ORIENTED_EDGE('',*,*,#490,.F.);
#410=ORIENTED_EDGE('',*,*,#499,.F.);
#411=CARTESIAN_POINT('',(14.0,20.5,0.0));
#412=DIRECTION('',(0.0,0.0,1.0));
#413=DIRECTION('',(1.0,0.0,0.0));
#414=ORIENTED_EDGE('',*,*,#492,.F.);
#415=ORIENTED_EDGE('',*,*,#500,.T.);
#416=ORIENTED_EDGE('',*,*,#494,.F.);
#417=CARTESIAN_POINT('',(-14.0,20.5,2.0));
#418=DIRECTION('',(0.0,1.0,0.0));
#419=DIRECTION('',(0.0,0.0,1.0));
#420=ORIENTED_EDGE('',*,*,#500,.F.);
#421=ORIENTED_EDGE('',*,*,#472,.F.);
#422=ORIENTED_EDGE('',*,*,#501,.F.);
#423=ORIENTED_EDGE('',*,*,#502,.F.);
#424=CARTESIAN_POINT('',(-14.0,20.5,0.0));
#425=DIRECTION('',(0.0,0.0,1.0));
#426=DIRECTION('',(1.0,0.0,0.0));
#427=ORIENTED_EDGE('',*,*,#486,.T.);
#428=ORIENTED_EDGE('',*,*,#483,.T.);
#429=ORIENTED_EDGE('',*,*,#493,.T.);
#430=ORIENTED_EDGE('',*,*,#496,.T.);
#431=CARTESIAN_POINT('',(0.0,0.0,0.0));
#432=DIRECTION('',(0.0,0.0,1.0));
#433=DIRECTION('',(1.0,0.0,0.0));
#434=ORIENTED_EDGE('',*,*,#466,.F.);
#435=ORIENTED_EDGE('',*,*,#503,.F.);
#436=ORIENTED_EDGE('',*,*,#475,.T.);
#437=ORIENTED_EDGE('',*,*,#479,.T.);
#438=ORIENTED_EDGE('',*,*,#504,.T.);
#439=ORIENTED_EDGE('',*,*,#497,.T.);
#440=ORIENTED_EDGE('',*,*,#505,.T.);
#441=ORIENTED_EDGE('',*,*,#501,.T.);
#442=ORIENTED_EDGE('',*,*,#471,.T.);
#443=ORIENTED_EDGE('',*,*,#491,.T.);
#444=CARTESIAN_POINT('',(0.0,0.0,2.5));
#445=DIRECTION('',(0.0,0.0,1.0));
#446=DIRECTION('',(1.0,0.0,0.0));
#447=ORIENTED_EDGE('',*,*,#505,.F.);
#448=ORIENTED_EDGE('',*,*,#499,.T.);
#449=ORIENTED_EDGE('',*,*,#495,.T.);
#450=ORIENTED_EDGE('',*,*,#502,.T.);
#451=CARTESIAN_POINT('',(0.0,22.5,0.0));
#452=DIRECTION('',(-1.22460635382238E-16,1.0,0.0));
#453=DIRECTION('',(-1.0,-1.22460635382238E-16,0.0));
#454=ORIENTED_EDGE('',*,*,#504,.F.);
#455=ORIENTED_EDGE('',*,*,#478,.T.);
#456=ORIENTED_EDGE('',*,*,#485,.T.);
#457=ORIENTED_EDGE('',*,*,#498,.T.);
#458=CARTESIAN_POINT('',(16.0,0.0,0.0));
#459=DIRECTION('',(1.0,-6.12303176911189E-17,0.0));
#460=DIRECTION('',(6.12303176911189E-17,1.0,0.0));
#461=ORIENTED_EDGE('',*,*,#503,.T.);
#462=ORIENTED_EDGE('',*,*,#468,.F.);
#463=CARTESIAN_POINT('',(-8.5,-13.0,2.5));
#464=DIRECTION('',(0.0,0.0,1.0));
#465=DIRECTION('',(1.0,0.0,0.0));
#466=EDGE_CURVE('',#506,#506,#507,.T.);
#467=EDGE_CURVE('',#508,#508,#509,.T.);
#468=EDGE_CURVE('',#510,#510,#511,.T.);
#469=EDGE_CURVE('',#512,#513,#514,.T.);
#470=EDGE_CURVE('',#513,#515,#516,.T.);
#471=EDGE_CURVE('',#517,#515,#518,.T.);
#472=EDGE_CURVE('',#517,#512,#519,.F.);
#473=EDGE_CURVE('',#520,#521,#522,.T.);
#474=EDGE_CURVE('',#521,#523,#524,.T.);
#475=EDGE_CURVE('',#525,#523,#526,.T.);
#476=EDGE_CURVE('',#525,#520,#527,.F.);
#477=EDGE_CURVE('',#521,#528,#529,.F.);
#478=EDGE_CURVE('',#530,#528,#531,.F.);
#479=EDGE_CURVE('',#523,#530,#532,.T.);
#480=EDGE_CURVE('',#521,#533,#534,.T.);
#481=EDGE_CURVE('',#533,#528,#535,.T.);
#482=EDGE_CURVE('',#520,#536,#537,.F.);
#483=EDGE_CURVE('',#533,#536,#538,.F.);
#484=EDGE_CURVE('',#539,#540,#541,.F.);
#485=EDGE_CURVE('',#528,#540,#542,.T.);
#486=EDGE_CURVE('',#539,#533,#543,.F.);
#487=EDGE_CURVE('',#520,#513,#544,.T.);
#488=EDGE_CURVE('',#513,#536,#545,.T.);
#489=EDGE_CURVE('',#539,#546,#547,.T.);
#490=EDGE_CURVE('',#546,#540,#548,.T.);
#491=EDGE_CURVE('',#515,#525,#549,.T.);
#492=EDGE_CURVE('',#512,#550,#551,.F.);
#493=EDGE_CURVE('',#536,#550,#552,.F.);
#494=EDGE_CURVE('',#550,#553,#554,.F.);
#495=EDGE_CURVE('',#546,#553,#555,.T.);
#496=EDGE_CURVE('',#550,#539,#556,.F.);
#497=EDGE_CURVE('',#557,#558,#559,.T.);
#498=EDGE_CURVE('',#540,#557,#560,.T.);
#499=EDGE_CURVE('',#558,#546,#561,.F.);
#500=EDGE_CURVE('',#512,#553,#562,.T.);
#501=EDGE_CURVE('',#563,#517,#564,.T.);
#502=EDGE_CURVE('',#553,#563,#565,.T.);
#503=EDGE_CURVE('',#566,#566,#567,.T.);
#504=EDGE_CURVE('',#530,#557,#568,.T.);
#505=EDGE_CURVE('',#558,#563,#569,.T.);
#506=VERTEX_POINT('',#570);
#507=CIRCLE('',#571,5.75);
#508=VERTEX_POINT('',#572);
#509=CIRCLE('',#573,5.75);
#510=VERTEX_POINT('',#574);
#511=CIRCLE('',#575,5.75);
#512=VERTEX_POINT('',#576);
#513=VERTEX_POINT('',#577);
#514=LINE('',#578,#579);
#515=VERTEX_POINT('',#580);
#516=LINE('',#581,#582);
#517=VERTEX_POINT('',#583);
#518=LINE('',#584,#585);
#519=LINE('',#586,#587);
#520=VERTEX_POINT('',#588);
#521=VERTEX_POINT('',#589);
#522=LINE('',#590,#591);
#523=VERTEX_POINT('',#592);
#524=LINE('',#593,#594);
#525=VERTEX_POINT('',#595);
#526=LINE('',#596,#597);
#527=LINE('',#598,#599);
#528=VERTEX_POINT('',#600);
#529=CIRCLE('',#601,2.0);
#530=VERTEX_POINT('',#602);
#531=LINE('',#603,#604);
#532=CIRCLE('',#605,2.0);
#533=VERTEX_POINT('',#606);
#534=CIRCLE('',#607,2.0);
#535=CIRCLE('',#608,2.0);
#536=VERTEX_POINT('',#609);
#537=CIRCLE('',#610,2.0);
#538=LINE('',#611,#612);
#539=VERTEX_POINT('',#613);
#540=VERTEX_POINT('',#614);
#541=CIRCLE('',#615,2.0);
#542=LINE('',#616,#617);
#543=LINE('',#618,#619);
#544=CIRCLE('',#620,2.0);
#545=CIRCLE('',#621,2.0);
#546=VERTEX_POINT('',#622);
#547=CIRCLE('',#623,2.0);
#548=CIRCLE('',#624,2.0);
#549=CIRCLE('',#625,2.0);
#550=VERTEX_POINT('',#626);
#551=CIRCLE('',#627,2.0);
#552=LINE('',#628,#629);
#553=VERTEX_POINT('',#630);
#554=CIRCLE('',#631,2.0);
#555=LINE('',#632,#633);
#556=LINE('',#634,#635);
#557=VERTEX_POINT('',#636);
#558=VERTEX_POINT('',#637);
#559=CIRCLE('',#638,2.0);
#560=LINE('',#639,#640);
#561=LINE('',#641,#642);
#562=CIRCLE('',#643,2.0);
#563=VERTEX_POINT('',#644);
#564=CIRCLE('',#645,2.0);
#565=LINE('',#646,#647);
#566=VERTEX_POINT('',#648);
#567=CIRCLE('',#649,5.75);
#568=LINE('',#650,#651);
#569=LINE('',#652,#653);
#570=CARTESIAN_POINT('',(-2.75,13.0,2.5));
#571=AXIS2_PLACEMENT_3D('',#654,#655,#656);
#572=CARTESIAN_POINT('',(-2.75,13.0,12.5));
#573=AXIS2_PLACEMENT_3D('',#657,#658,#659);
#574=CARTESIAN_POINT('',(-2.75,-13.0,12.5));
#575=AXIS2_PLACEMENT_3D('',#660,#661,#662);
#576=CARTESIAN_POINT('',(-16.0,20.5,2.0));
#577=CARTESIAN_POINT('',(-16.0,-20.5,2.0));
#578=CARTESIAN_POINT('',(-16.0,-22.5,2.0));
#579=VECTOR('',#663,1.0);
#580=CARTESIAN_POINT('',(-16.0,-20.5,2.5));
#581=CARTESIAN_POINT('',(-16.0,-20.5,0.0));
#582=VECTOR('',#664,1.0);
#583=CARTESIAN_POINT('',(-16.0,20.5,2.5));
#584=CARTESIAN_POINT('',(-16.0,0.0,2.5));
#585=VECTOR('',#665,1.0);
#586=CARTESIAN_POINT('',(-16.0,20.5,0.0));
#587=VECTOR('',#666,1.0);
#588=CARTESIAN_POINT('',(-14.0,-22.5,2.0));
#589=CARTESIAN_POINT('',(14.0,-22.5,2.0));
#590=CARTESIAN_POINT('',(16.0,-22.5,2.0));
#591=VECTOR('',#667,1.0);
#592=CARTESIAN_POINT('',(14.0,-22.5,2.5));
#593=CARTESIAN_POINT('',(14.0,-22.5,0.0));
#594=VECTOR('',#668,1.0);
#595=CARTESIAN_POINT('',(-14.0,-22.5,2.5));
#596=CARTESIAN_POINT('',(0.0,-22.5,2.5));
#597=VECTOR('',#669,1.0);
#598=CARTESIAN_POINT('',(-14.0,-22.5,0.0));
#599=VECTOR('',#670,1.0);
#600=CARTESIAN_POINT('',(16.0,-20.5,2.0));
#601=AXIS2_PLACEMENT_3D('',#671,#672,#673);
#602=CARTESIAN_POINT('',(16.0,-20.5,2.5));
#603=CARTESIAN_POINT('',(16.0,-20.5,0.0));
#604=VECTOR('',#674,1.0);
#605=AXIS2_PLACEMENT_3D('',#675,#676,#677);
#606=CARTESIAN_POINT('',(14.0,-20.5,0.0));
#607=AXIS2_PLACEMENT_3D('',#678,#679,#680);
#608=AXIS2_PLACEMENT_3D('',#681,#682,#683);
#609=CARTESIAN_POINT('',(-14.0,-20.5,0.0));
#610=AXIS2_PLACEMENT_3D('',#684,#685,#686);
#611=CARTESIAN_POINT('',(-16.0,-20.5,0.0));
#612=VECTOR('',#687,1.0);
#613=CARTESIAN_POINT('',(14.0,20.5,0.0));
#614=CARTESIAN_POINT('',(16.0,20.5,2.0));
#615=AXIS2_PLACEMENT_3D('',#688,#689,#690);
#616=CARTESIAN_POINT('',(16.0,22.5,2.0));
#617=VECTOR('',#691,1.0);
#618=CARTESIAN_POINT('',(14.0,-22.5,0.0));
#619=VECTOR('',#692,1.0);
#620=AXIS2_PLACEMENT_3D('',#693,#694,#695);
#621=AXIS2_PLACEMENT_3D('',#696,#697,#698);
#622=CARTESIAN_POINT('',(14.0,22.5,2.0));
#623=AXIS2_PLACEMENT_3D('',#699,#700,#701);
#624=AXIS2_PLACEMENT_3D('',#702,#703,#704);
#625=AXIS2_PLACEMENT_3D('',#705,#706,#707);
#626=CARTESIAN_POINT('',(-14.0,20.5,0.0));
#627=AXIS2_PLACEMENT_3D('',#708,#709,#710);
#628=CARTESIAN_POINT('',(-14.0,22.5,0.0));
#629=VECTOR('',#711,1.0);
#630=CARTESIAN_POINT('',(-14.0,22.5,2.0));
#631=AXIS2_PLACEMENT_3D('',#712,#713,#714);
#632=CARTESIAN_POINT('',(-16.0,22.5,2.0));
#633=VECTOR('',#715,1.0);
#634=CARTESIAN_POINT('',(16.0,20.5,0.0));
#635=VECTOR('',#716,1.0);
#636=CARTESIAN_POINT('',(16.0,20.5,2.5));
#637=CARTESIAN_POINT('',(14.0,22.5,2.5));
#638=AXIS2_PLACEMENT_3D('',#717,#718,#719);
#639=CARTESIAN_POINT('',(16.0,20.5,0.0));
#640=VECTOR('',#720,1.0);
#641=CARTESIAN_POINT('',(14.0,22.5,0.0));
#642=VECTOR('',#721,1.0);
#643=AXIS2_PLACEMENT_3D('',#722,#723,#724);
#644=CARTESIAN_POINT('',(-14.0,22.5,2.5));
#645=AXIS2_PLACEMENT_3D('',#725,#726,#727);
#646=CARTESIAN_POINT('',(-14.0,22.5,0.0));
#647=VECTOR('',#728,1.0);
#648=CARTESIAN_POINT('',(-2.75,-13.0,2.5));
#649=AXIS2_PLACEMENT_3D('',#729,#730,#731);
#650=CARTESIAN_POINT('',(16.0,0.0,2.5));
#651=VECTOR('',#732,1.0);
#652=CARTESIAN_POINT('',(0.0,22.5,2.5));
#653=VECTOR('',#733,1.0);
#654=CARTESIAN_POINT('',(-8.5,13.0,2.5));
#655=DIRECTION('',(0.0,0.0,1.0));
#656=DIRECTION('',(1.0,0.0,0.0));
#657=CARTESIAN_POINT('',(-8.5,13.0,12.5));
#658=DIRECTION('',(0.0,0.0,1.0));
#659=DIRECTION('',(1.0,0.0,0.0));
#660=CARTESIAN_POINT('',(-8.5,-13.0,12.5));
#661=DIRECTION('',(0.0,0.0,1.0));
#662=DIRECTION('',(1.0,0.0,0.0));
#663=DIRECTION('',(6.12303176911189E-17,-1.0,0.0));
#664=DIRECTION('',(0.0,0.0,1.0));
#665=DIRECTION('',(6.12303176911189E-17,-1.0,0.0));
#666=DIRECTION('',(0.0,0.0,1.0));
#667=DIRECTION('',(1.0,0.0,0.0));
#668=DIRECTION('',(0.0,0.0,1.0));
#669=DIRECTION('',(1.0,0.0,0.0));
#670=DIRECTION('',(0.0,0.0,1.0));
#671=CARTESIAN_POINT('',(14.0,-20.5,2.0));
#672=DIRECTION('',(0.0,0.0,-1.0));
#673=DIRECTION('',(-1.0,0.0,0.0));
#674=DIRECTION('',(0.0,0.0,1.0));
#675=CARTESIAN_POINT('',(14.0,-20.5,2.5));
#676=DIRECTION('',(0.0,0.0,1.0));
#677=DIRECTION('',(1.0,0.0,0.0));
#678=CARTESIAN_POINT('',(14.0,-20.5,2.0));
#679=DIRECTION('',(1.0,0.0,0.0));
#680=DIRECTION('',(0.0,0.0,-1.0));
#681=CARTESIAN_POINT('',(14.0,-20.5,2.0));
#682=DIRECTION('',(0.0,-1.0,0.0));
#683=DIRECTION('',(0.0,0.0,-1.0));
#684=CARTESIAN_POINT('',(-14.0,-20.5,2.0));
#685=DIRECTION('',(-1.0,0.0,0.0));
#686=DIRECTION('',(0.0,0.0,1.0));
#687=DIRECTION('',(1.0,0.0,0.0));
#688=CARTESIAN_POINT('',(14.0,20.5,2.0));
#689=DIRECTION('',(0.0,1.0,1.73472347597681E-15));
#690=DIRECTION('',(0.0,-1.73472347597681E-15,1.0));
#691=DIRECTION('',(6.12303176911189E-17,1.0,0.0));
#692=DIRECTION('',(6.12303176911189E-17,1.0,0.0));
#693=CARTESIAN_POINT('',(-14.0,-20.5,2.0));
#694=DIRECTION('',(0.0,0.0,-1.0));
#695=DIRECTION('',(-1.0,0.0,0.0));
#696=CARTESIAN_POINT('',(-14.0,-20.5,2.0));
#697=DIRECTION('',(0.0,-1.0,0.0));
#698=DIRECTION('',(0.0,0.0,-1.0));
#699=CARTESIAN_POINT('',(14.0,20.5,2.0));
#700=DIRECTION('',(1.0,0.0,0.0));
#701=DIRECTION('',(0.0,0.0,-1.0));
#702=CARTESIAN_POINT('',(14.0,20.5,2.0));
#703=DIRECTION('',(0.0,0.0,-1.0));
#704=DIRECTION('',(-1.0,0.0,0.0));
#705=CARTESIAN_POINT('',(-14.0,-20.5,2.5));
#706=DIRECTION('',(0.0,0.0,1.0));
#707=DIRECTION('',(1.0,0.0,0.0));
#708=CARTESIAN_POINT('',(-14.0,20.5,2.0));
#709=DIRECTION('',(0.0,1.0,0.0));
#710=DIRECTION('',(0.0,0.0,1.0));
#711=DIRECTION('',(6.12303176911189E-17,-1.0,0.0));
#712=CARTESIAN_POINT('',(-14.0,20.5,2.0));
#713=DIRECTION('',(-1.0,0.0,0.0));
#714=DIRECTION('',(0.0,0.0,1.0));
#715=DIRECTION('',(-1.0,-1.22460635382238E-16,0.0));
#716=DIRECTION('',(-1.0,-1.22460635382238E-16,0.0));
#717=CARTESIAN_POINT('',(14.0,20.5,2.5));
#718=DIRECTION('',(0.0,0.0,1.0));
#719=DIRECTION('',(1.0,0.0,0.0));
#720=DIRECTION('',(0.0,0.0,1.0));
#721=DIRECTION('',(0.0,0.0,1.0));
#722=CARTESIAN_POINT('',(-14.0,20.5,2.0));
#723=DIRECTION('',(0.0,0.0,-1.0));
#724=DIRECTION('',(-1.0,0.0,0.0));
#725=CARTESIAN_POINT('',(-14.0,20.5,2.5));
#726=DIRECTION('',(0.0,0.0,1.0));
#727=DIRECTION('',(1.0,0.0,0.0));
#728=DIRECTION('',(0.0,0.0,1.0));
#729=CARTESIAN_POINT('',(-8.5,-13.0,2.5));
#730=DIRECTION('',(0.0,0.0,1.0));
#731=DIRECTION('',(1.0,0.0,0.0));
#732=DIRECTION('',(6.12303176911189E-17,1.0,0.0));
#733=DIRECTION('',(-1.0,-1.22460635382238E-16,0.0));
ENDSEC;
END-ISO-10303-21;
