ISO-10303-21;
HEADER;
FILE_DESCRIPTION(('STEP AP203'),'1');
FILE_NAME('BASE10H2676.stp','2023-12-08T11:10:41',(' '),(' '),'Spatial InterOp 3D',' ',' ');
FILE_SCHEMA(('CONFIG_CONTROL_DESIGN'));
ENDSEC;
DATA;
#1=DESIGN_CONTEXT('',#61,'design');
#2=APPLICATION_PROTOCOL_DEFINITION('INTERNATIONAL STANDARD','config_control_design',1994,#61);
#3=PRODUCT_CATEGORY_RELATIONSHIP('NONE','NONE',#62,#63);
#4=DATE_AND_TIME(#64,#65);
#5=DATE_TIME_ROLE('creation_date');
#6=DATE_TIME_ROLE('classification_date');
#7=PERSON_AND_ORGANIZATION_ROLE('creator');
#8=PERSON_AND_ORGANIZATION_ROLE('design_supplier');
#9=PERSON_AND_ORGANIZATION_ROLE('classification_officer');
#10=PERSON_AND_ORGANIZATION_ROLE('design_owner');
#11=APPROVAL_PERSON_ORGANIZATION(#66,#67,#68);
#12=APPROVAL_DATE_TIME(#4,#67);
#13=CC_DESIGN_APPROVAL(#67,(#69,#70,#71));
#14=CC_DESIGN_DATE_AND_TIME_ASSIGNMENT(#4,#5,(#71));
#15=CC_DESIGN_DATE_AND_TIME_ASSIGNMENT(#4,#6,(#69));
#16=CC_DESIGN_PERSON_AND_ORGANIZATION_ASSIGNMENT(#66,#10,(#72));
#17=CC_DESIGN_PERSON_AND_ORGANIZATION_ASSIGNMENT(#66,#7,(#71));
#18=CC_DESIGN_PERSON_AND_ORGANIZATION_ASSIGNMENT(#66,#7,(#70));
#19=CC_DESIGN_PERSON_AND_ORGANIZATION_ASSIGNMENT(#66,#8,(#70));
#20=CC_DESIGN_SECURITY_CLASSIFICATION(#69,(#70));
#21=CC_DESIGN_PERSON_AND_ORGANIZATION_ASSIGNMENT(#66,#9,(#69));
#22=SHAPE_DEFINITION_REPRESENTATION(#73,#74);
#23= (GEOMETRIC_REPRESENTATION_CONTEXT(3)GLOBAL_UNCERTAINTY_ASSIGNED_CONTEXT((#77))GLOBAL_UNIT_ASSIGNED_CONTEXT((#79,#80,#81))REPRESENTATION_CONTEXT('NONE','WORKSPACE'));
#24=PROPERTY_DEFINITION_REPRESENTATION(#83,#84);
#25=GENERAL_PROPERTY_ASSOCIATION('','',#85,#83);
#26=PROPERTY_DEFINITION_REPRESENTATION(#86,#87);
#27=GENERAL_PROPERTY_ASSOCIATION('','',#88,#86);
#28=PROPERTY_DEFINITION_REPRESENTATION(#89,#90);
#29=GENERAL_PROPERTY_ASSOCIATION('','',#91,#89);
#30=PROPERTY_DEFINITION_REPRESENTATION(#92,#93);
#31=GENERAL_PROPERTY_ASSOCIATION('','',#94,#92);
#32=PROPERTY_DEFINITION_REPRESENTATION(#95,#96);
#33=GENERAL_PROPERTY_ASSOCIATION('','',#97,#95);
#34=PROPERTY_DEFINITION_REPRESENTATION(#98,#99);
#35=GENERAL_PROPERTY_ASSOCIATION('','',#100,#98);
#36=PROPERTY_DEFINITION_REPRESENTATION(#101,#102);
#37=GENERAL_PROPERTY_ASSOCIATION('','',#103,#101);
#38=PROPERTY_DEFINITION_REPRESENTATION(#104,#105);
#39=GENERAL_PROPERTY_ASSOCIATION('','',#106,#104);
#40=PROPERTY_DEFINITION_REPRESENTATION(#107,#108);
#41=GENERAL_PROPERTY_ASSOCIATION('','',#109,#107);
#42=PROPERTY_DEFINITION_REPRESENTATION(#110,#111);
#43=GENERAL_PROPERTY_ASSOCIATION('','',#112,#110);
#44=PROPERTY_DEFINITION_REPRESENTATION(#113,#114);
#45=GENERAL_PROPERTY_ASSOCIATION('','',#115,#113);
#46=PROPERTY_DEFINITION_REPRESENTATION(#116,#117);
#47=GENERAL_PROPERTY_ASSOCIATION('','',#118,#116);
#48=PROPERTY_DEFINITION_REPRESENTATION(#119,#120);
#49=GENERAL_PROPERTY_ASSOCIATION('','',#121,#119);
#50=PROPERTY_DEFINITION_REPRESENTATION(#122,#123);
#51=GENERAL_PROPERTY_ASSOCIATION('','',#124,#122);
#52=PROPERTY_DEFINITION_REPRESENTATION(#125,#126);
#53=GENERAL_PROPERTY_ASSOCIATION('','',#127,#125);
#54=PROPERTY_DEFINITION_REPRESENTATION(#128,#129);
#55=GENERAL_PROPERTY_ASSOCIATION('','',#130,#128);
#56=PROPERTY_DEFINITION_REPRESENTATION(#131,#132);
#57=GENERAL_PROPERTY_ASSOCIATION('','',#133,#131);
#61=APPLICATION_CONTEXT('CONFIGURATION CONTROLLED 3D DESIGNS OF MECHANICAL PARTS AND ASSEMBLIES');
#62=PRODUCT_CATEGORY('part','NONE');
#63=PRODUCT_RELATED_PRODUCT_CATEGORY('detail',' ',(#72));
#64=CALENDAR_DATE(2023,8,11);
#65=LOCAL_TIME(12,10,41.0,#134);
#66=PERSON_AND_ORGANIZATION(#135,#136);
#67=APPROVAL(#137,'SOLID MODEL');
#68=APPROVAL_ROLE('APPROVED');
#69=SECURITY_CLASSIFICATION('','',#138);
#70=PRODUCT_DEFINITION_FORMATION_WITH_SPECIFIED_SOURCE('A','NONE',#72,.NOT_KNOWN.);
#71=PRODUCT_DEFINITION('','NONE',#70,#1);
#72=PRODUCT('Equere de fixation au sol simple 45','%#@![$ComplementaryPartNumber=BASE10H2676]','Equere de fixation au sol simple 45',(#139));
#73=PRODUCT_DEFINITION_SHAPE('NONE','NONE',#71);
#74=ADVANCED_BREP_SHAPE_REPRESENTATION('1',(#140,#141),#23);
#77=UNCERTAINTY_MEASURE_WITH_UNIT(LENGTH_MEASURE(0.001),#79,'','');
#79= (CONVERSION_BASED_UNIT('MILLIMETRE',#144)LENGTH_UNIT()NAMED_UNIT(#147));
#80= (NAMED_UNIT(#149)PLANE_ANGLE_UNIT()SI_UNIT($,.RADIAN.));
#81= (NAMED_UNIT(#149)SOLID_ANGLE_UNIT()SI_UNIT($,.STERADIAN.));
#83=PROPERTY_DEFINITION('PdmObjectId','',#71);
#84=REPRESENTATION('',(#155),#23);
#85=GENERAL_PROPERTY('','37_d19a729c-028b-443f-a48b-711db3fa4d5c&5_10_0_10','');
#86=PROPERTY_DEFINITION('Type de production hellomoov','',#71);
#87=REPRESENTATION('',(#156),#23);
#88=GENERAL_PROPERTY('','pi\X2\00E8\X0\ce du stock','');
#89=PROPERTY_DEFINITION('FOURNISSEUR2','',#71);
#90=REPRESENTATION('',(#157),#23);
#91=GENERAL_PROPERTY('','\X2\00E0\X0\ d\X2\00E9\X0\finir','');
#92=PROPERTY_DEFINITION('FOURNISSEUR','',#71);
#93=REPRESENTATION('',(#158),#23);
#94=GENERAL_PROPERTY('','\X2\00E0\X0\ d\X2\00E9\X0\finir','');
#95=PROPERTY_DEFINITION('DESIGNATION_ENG','',#71);
#96=REPRESENTATION('',(#159),#23);
#97=GENERAL_PROPERTY('','','');
#98=PROPERTY_DEFINITION('CODE_TRANSEPT','',#71);
#99=REPRESENTATION('',(#160),#23);
#100=GENERAL_PROPERTY('','WSTFOVAL45','');
#101=PROPERTY_DEFINITION('CATALOGUE_ID','',#71);
#102=REPRESENTATION('',(#161),#23);
#103=GENERAL_PROPERTY('','2676','');
#104=PROPERTY_DEFINITION('CATALOGUE_LETTRE','',#71);
#105=REPRESENTATION('',(#162),#23);
#106=GENERAL_PROPERTY('','H','');
#107=PROPERTY_DEFINITION('CATALOGUE_LIGNE','',#71);
#108=REPRESENTATION('',(#163),#23);
#109=GENERAL_PROPERTY('','10','');
#110=PROPERTY_DEFINITION('CATALOGUE_PREFIXE','',#71);
#111=REPRESENTATION('',(#164),#23);
#112=GENERAL_PROPERTY('','BASE','');
#113=PROPERTY_DEFINITION('D\X2\00E9\X0\signation du mat\X2\00E9\X0\riau','',#71);
#114=REPRESENTATION('',(#165),#23);
#115=GENERAL_PROPERTY('','Aluminium EN AW 6063 T66','');
#116=PROPERTY_DEFINITION('Nom du mat\X2\00E9\X0\riau','',#71);
#117=REPRESENTATION('',(#166),#23);
#118=GENERAL_PROPERTY('','Aluminium EN AW 6063 T66','');
#119=PROPERTY_DEFINITION('Manufacturing Part Number','',#71);
#120=REPRESENTATION('',(#167),#23);
#121=GENERAL_PROPERTY('','093BA14045','');
#122=PROPERTY_DEFINITION('Manufacturer','',#71);
#123=REPRESENTATION('',(#168),#23);
#124=GENERAL_PROPERTY('','HELLOMOOV','');
#125=PROPERTY_DEFINITION('CreationDate','',#71);
#126=REPRESENTATION('',(#169),#23);
#127=GENERAL_PROPERTY('','12/06/2023 10:14:09','');
#128=PROPERTY_DEFINITION('Minor Revision','',#71);
#129=REPRESENTATION('',(#170),#23);
#130=GENERAL_PROPERTY('','7','');
#131=PROPERTY_DEFINITION('Complementary Part Number','',#71);
#132=REPRESENTATION('',(#171),#23);
#133=GENERAL_PROPERTY('','%#@![CATALOGUE_PREFIXE=BASE][CATALOGUE_LIGNE=10][CATALOGUE_LETTRE=H][CATALOGUE_ID=2676]','');
#134=COORDINATED_UNIVERSAL_TIME_OFFSET(1,0,.AHEAD.);
#135=PERSON('','UNSPECIFIED',$,$,$,$);
#136=ORGANIZATION('UNSPECIFIED','UNSPECIFIED','UNSPECIFIED');
#137=APPROVAL_STATUS('approved');
#138=SECURITY_CLASSIFICATION_LEVEL('unclassified');
#139=MECHANICAL_CONTEXT('',#61,'mechanical');
#140=MANIFOLD_SOLID_BREP('1',#172);
#141=AXIS2_PLACEMENT_3D('',#173,#174,#175);
#144=LENGTH_MEASURE_WITH_UNIT(LENGTH_MEASURE(1.0),#176);
#147=DIMENSIONAL_EXPONENTS(1.0,0.0,0.0,0.0,0.0,0.0,0.0);
#149=DIMENSIONAL_EXPONENTS(0.0,0.0,0.0,0.0,0.0,0.0,0.0);
#155=DESCRIPTIVE_REPRESENTATION_ITEM('','37_d19a729c-028b-443f-a48b-711db3fa4d5c&5_10_0_10');
#156=DESCRIPTIVE_REPRESENTATION_ITEM('','pi\X2\00E8\X0\ce du stock');
#157=DESCRIPTIVE_REPRESENTATION_ITEM('','\X2\00E0\X0\ d\X2\00E9\X0\finir');
#158=DESCRIPTIVE_REPRESENTATION_ITEM('','\X2\00E0\X0\ d\X2\00E9\X0\finir');
#159=DESCRIPTIVE_REPRESENTATION_ITEM('','');
#160=DESCRIPTIVE_REPRESENTATION_ITEM('','WSTFOVAL45');
#161=DESCRIPTIVE_REPRESENTATION_ITEM('','2676');
#162=DESCRIPTIVE_REPRESENTATION_ITEM('','H');
#163=DESCRIPTIVE_REPRESENTATION_ITEM('','10');
#164=DESCRIPTIVE_REPRESENTATION_ITEM('','BASE');
#165=DESCRIPTIVE_REPRESENTATION_ITEM('','Aluminium EN AW 6063 T66');
#166=DESCRIPTIVE_REPRESENTATION_ITEM('','Aluminium EN AW 6063 T66');
#167=DESCRIPTIVE_REPRESENTATION_ITEM('','093BA14045');
#168=DESCRIPTIVE_REPRESENTATION_ITEM('','HELLOMOOV');
#169=DESCRIPTIVE_REPRESENTATION_ITEM('','12/06/2023 10:14:09');
#170=DESCRIPTIVE_REPRESENTATION_ITEM('','7');
#171=DESCRIPTIVE_REPRESENTATION_ITEM('','%#@![CATALOGUE_PREFIXE=BASE][CATALOGUE_LIGNE=10][CATALOGUE_LETTRE=H][CATALOGUE_ID=2676]');
#172=CLOSED_SHELL('',(#177,#178,#179,#180,#181,#182,#183,#184,#185,#186,#187,#188,#189,#190,#191,#192));
#173=CARTESIAN_POINT('',(0.0,0.0,0.0));
#174=DIRECTION('',(0.0,0.0,1.0));
#175=DIRECTION('',(1.0,0.0,0.0));
#176= (NAMED_UNIT(#147)LENGTH_UNIT()SI_UNIT(.MILLI.,.METRE.));
#177=ADVANCED_FACE('',(#194,#195),#196,.T.);
#178=ADVANCED_FACE('',(#197),#198,.F.);
#179=ADVANCED_FACE('',(#199,#200,#201),#202,.T.);
#180=ADVANCED_FACE('',(#203),#204,.T.);
#181=ADVANCED_FACE('',(#205),#206,.T.);
#182=ADVANCED_FACE('',(#207),#208,.T.);
#183=ADVANCED_FACE('',(#209,#210,#211),#212,.T.);
#184=ADVANCED_FACE('',(#213,#214),#215,.T.);
#185=ADVANCED_FACE('',(#216),#217,.T.);
#186=ADVANCED_FACE('',(#218),#219,.T.);
#187=ADVANCED_FACE('',(#220),#221,.F.);
#188=ADVANCED_FACE('',(#222,#223),#224,.F.);
#189=ADVANCED_FACE('',(#225,#226),#227,.F.);
#190=ADVANCED_FACE('',(#228),#229,.F.);
#191=ADVANCED_FACE('',(#230,#231),#232,.F.);
#192=ADVANCED_FACE('',(#233,#234),#235,.F.);
#194=FACE_BOUND('',#236,.T.);
#195=FACE_OUTER_BOUND('',#237,.T.);
#196=PLANE('',#238);
#197=FACE_OUTER_BOUND('',#239,.T.);
#198=CYLINDRICAL_SURFACE('',#240,4.0);
#199=FACE_BOUND('',#241,.T.);
#200=FACE_BOUND('',#242,.T.);
#201=FACE_OUTER_BOUND('',#243,.T.);
#202=PLANE('',#244);
#203=FACE_OUTER_BOUND('',#245,.T.);
#204=CYLINDRICAL_SURFACE('',#246,4.0);
#205=FACE_OUTER_BOUND('',#247,.T.);
#206=CYLINDRICAL_SURFACE('',#248,4.0);
#207=FACE_OUTER_BOUND('',#249,.T.);
#208=PLANE('',#250);
#209=FACE_BOUND('',#251,.T.);
#210=FACE_BOUND('',#252,.T.);
#211=FACE_OUTER_BOUND('',#253,.T.);
#212=PLANE('',#254);
#213=FACE_BOUND('',#255,.T.);
#214=FACE_OUTER_BOUND('',#256,.T.);
#215=PLANE('',#257);
#216=FACE_OUTER_BOUND('',#258,.T.);
#217=PLANE('',#259);
#218=FACE_OUTER_BOUND('',#260,.T.);
#219=PLANE('',#261);
#220=FACE_OUTER_BOUND('',#262,.T.);
#221=PLANE('',#263);
#222=FACE_OUTER_BOUND('',#264,.T.);
#223=FACE_OUTER_BOUND('',#265,.T.);
#224=CYLINDRICAL_SURFACE('',#266,4.5);
#225=FACE_OUTER_BOUND('',#267,.T.);
#226=FACE_OUTER_BOUND('',#268,.T.);
#227=CYLINDRICAL_SURFACE('',#269,4.5);
#228=FACE_OUTER_BOUND('',#270,.T.);
#229=CYLINDRICAL_SURFACE('',#271,14.75);
#230=FACE_OUTER_BOUND('',#272,.T.);
#231=FACE_BOUND('',#273,.T.);
#232=PLANE('',#274);
#233=FACE_OUTER_BOUND('',#275,.T.);
#234=FACE_OUTER_BOUND('',#276,.T.);
#235=CYLINDRICAL_SURFACE('',#277,6.75);
#236=EDGE_LOOP('',(#278,#279));
#237=EDGE_LOOP('',(#280,#281,#282,#283));
#238=AXIS2_PLACEMENT_3D('',#284,#285,#286);
#239=EDGE_LOOP('',(#287,#288,#289,#290));
#240=AXIS2_PLACEMENT_3D('',#291,#292,#293);
#241=EDGE_LOOP('',(#294));
#242=EDGE_LOOP('',(#295));
#243=EDGE_LOOP('',(#296,#297,#298,#299));
#244=AXIS2_PLACEMENT_3D('',#300,#301,#302);
#245=EDGE_LOOP('',(#303,#304,#305,#306));
#246=AXIS2_PLACEMENT_3D('',#307,#308,#309);
#247=EDGE_LOOP('',(#310,#311,#312,#313));
#248=AXIS2_PLACEMENT_3D('',#314,#315,#316);
#249=EDGE_LOOP('',(#317,#318,#319,#320));
#250=AXIS2_PLACEMENT_3D('',#321,#322,#323);
#251=EDGE_LOOP('',(#324));
#252=EDGE_LOOP('',(#325));
#253=EDGE_LOOP('',(#326,#327,#328,#329));
#254=AXIS2_PLACEMENT_3D('',#330,#331,#332);
#255=EDGE_LOOP('',(#333));
#256=EDGE_LOOP('',(#334,#335,#336,#337));
#257=AXIS2_PLACEMENT_3D('',#338,#339,#340);
#258=EDGE_LOOP('',(#341,#342,#343,#344));
#259=AXIS2_PLACEMENT_3D('',#345,#346,#347);
#260=EDGE_LOOP('',(#348,#349,#350,#351,#352,#353,#354,#355,#356));
#261=AXIS2_PLACEMENT_3D('',#357,#358,#359);
#262=EDGE_LOOP('',(#360,#361,#362,#363,#364,#365,#366,#367,#368));
#263=AXIS2_PLACEMENT_3D('',#369,#370,#371);
#264=EDGE_LOOP('',(#372));
#265=EDGE_LOOP('',(#373));
#266=AXIS2_PLACEMENT_3D('',#374,#375,#376);
#267=EDGE_LOOP('',(#377));
#268=EDGE_LOOP('',(#378));
#269=AXIS2_PLACEMENT_3D('',#379,#380,#381);
#270=EDGE_LOOP('',(#382,#383));
#271=AXIS2_PLACEMENT_3D('',#384,#385,#386);
#272=EDGE_LOOP('',(#387,#388));
#273=EDGE_LOOP('',(#389));
#274=AXIS2_PLACEMENT_3D('',#390,#391,#392);
#275=EDGE_LOOP('',(#393));
#276=EDGE_LOOP('',(#394));
#277=AXIS2_PLACEMENT_3D('',#395,#396,#397);
#278=ORIENTED_EDGE('',*,*,#398,.F.);
#279=ORIENTED_EDGE('',*,*,#399,.F.);
#280=ORIENTED_EDGE('',*,*,#400,.F.);
#281=ORIENTED_EDGE('',*,*,#401,.F.);
#282=ORIENTED_EDGE('',*,*,#402,.T.);
#283=ORIENTED_EDGE('',*,*,#403,.T.);
#284=CARTESIAN_POINT('',(31.0,20.5,8.18725));
#285=DIRECTION('',(0.0871561463643704,0.0,0.996194662779776));
#286=DIRECTION('',(-0.996194662779776,0.0,0.0871561463643704));
#287=ORIENTED_EDGE('',*,*,#404,.F.);
#288=ORIENTED_EDGE('',*,*,#403,.F.);
#289=ORIENTED_EDGE('',*,*,#405,.T.);
#290=ORIENTED_EDGE('',*,*,#406,.T.);
#291=CARTESIAN_POINT('',(10.0,20.5,14.0398));
#292=DIRECTION('',(0.0,-1.0,0.0));
#293=DIRECTION('',(0.0,0.0,-1.0));
#294=ORIENTED_EDGE('',*,*,#407,.F.);
#295=ORIENTED_EDGE('',*,*,#408,.F.);
#296=ORIENTED_EDGE('',*,*,#409,.F.);
#297=ORIENTED_EDGE('',*,*,#406,.F.);
#298=ORIENTED_EDGE('',*,*,#410,.T.);
#299=ORIENTED_EDGE('',*,*,#411,.T.);
#300=CARTESIAN_POINT('',(6.0,20.5,75.0199));
#301=DIRECTION('',(1.0,0.0,1.22460635382238E-16));
#302=DIRECTION('',(-1.22460635382238E-16,0.0,1.0));
#303=ORIENTED_EDGE('',*,*,#412,.F.);
#304=ORIENTED_EDGE('',*,*,#413,.F.);
#305=ORIENTED_EDGE('',*,*,#414,.T.);
#306=ORIENTED_EDGE('',*,*,#401,.T.);
#307=CARTESIAN_POINT('',(52.0,20.5,2.3347));
#308=DIRECTION('',(0.0,-1.0,0.0));
#309=DIRECTION('',(0.0,0.0,-1.0));
#310=ORIENTED_EDGE('',*,*,#415,.F.);
#311=ORIENTED_EDGE('',*,*,#411,.F.);
#312=ORIENTED_EDGE('',*,*,#416,.T.);
#313=ORIENTED_EDGE('',*,*,#417,.T.);
#314=CARTESIAN_POINT('',(1.99999999999997,20.5,136.0));
#315=DIRECTION('',(0.0,-1.0,0.0));
#316=DIRECTION('',(0.0,0.0,-1.0));
#317=ORIENTED_EDGE('',*,*,#418,.F.);
#318=ORIENTED_EDGE('',*,*,#417,.F.);
#319=ORIENTED_EDGE('',*,*,#419,.T.);
#320=ORIENTED_EDGE('',*,*,#420,.T.);
#321=CARTESIAN_POINT('',(1.0,20.5,140.0));
#322=DIRECTION('',(-6.12303176911189E-17,0.0,1.0));
#323=DIRECTION('',(-1.0,0.0,-6.12303176911189E-17));
#324=ORIENTED_EDGE('',*,*,#421,.F.);
#325=ORIENTED_EDGE('',*,*,#422,.F.);
#326=ORIENTED_EDGE('',*,*,#423,.F.);
#327=ORIENTED_EDGE('',*,*,#420,.F.);
#328=ORIENTED_EDGE('',*,*,#424,.T.);
#329=ORIENTED_EDGE('',*,*,#425,.T.);
#330=CARTESIAN_POINT('',(0.0,20.5,70.0));
#331=DIRECTION('',(-1.0,0.0,0.0));
#332=DIRECTION('',(0.0,0.0,-1.0));
#333=ORIENTED_EDGE('',*,*,#426,.F.);
#334=ORIENTED_EDGE('',*,*,#427,.F.);
#335=ORIENTED_EDGE('',*,*,#425,.F.);
#336=ORIENTED_EDGE('',*,*,#428,.T.);
#337=ORIENTED_EDGE('',*,*,#429,.T.);
#338=CARTESIAN_POINT('',(28.0,20.5,-6.93889390390723E-15));
#339=DIRECTION('',(0.0,0.0,-1.0));
#340=DIRECTION('',(1.0,0.0,0.0));
#341=ORIENTED_EDGE('',*,*,#430,.F.);
#342=ORIENTED_EDGE('',*,*,#429,.F.);
#343=ORIENTED_EDGE('',*,*,#431,.T.);
#344=ORIENTED_EDGE('',*,*,#413,.T.);
#345=CARTESIAN_POINT('',(56.0,20.5,1.16735));
#346=DIRECTION('',(1.0,0.0,1.22460635382238E-16));
#347=DIRECTION('',(-1.22460635382238E-16,0.0,1.0));
#348=ORIENTED_EDGE('',*,*,#412,.T.);
#349=ORIENTED_EDGE('',*,*,#400,.T.);
#350=ORIENTED_EDGE('',*,*,#404,.T.);
#351=ORIENTED_EDGE('',*,*,#409,.T.);
#352=ORIENTED_EDGE('',*,*,#415,.T.);
#353=ORIENTED_EDGE('',*,*,#418,.T.);
#354=ORIENTED_EDGE('',*,*,#423,.T.);
#355=ORIENTED_EDGE('',*,*,#427,.T.);
#356=ORIENTED_EDGE('',*,*,#430,.T.);
#357=CARTESIAN_POINT('',(52.0,-20.5,2.3347));
#358=DIRECTION('',(0.0,-1.0,0.0));
#359=DIRECTION('',(0.0,0.0,-1.0));
#360=ORIENTED_EDGE('',*,*,#414,.F.);
#361=ORIENTED_EDGE('',*,*,#431,.F.);
#362=ORIENTED_EDGE('',*,*,#428,.F.);
#363=ORIENTED_EDGE('',*,*,#424,.F.);
#364=ORIENTED_EDGE('',*,*,#419,.F.);
#365=ORIENTED_EDGE('',*,*,#416,.F.);
#366=ORIENTED_EDGE('',*,*,#410,.F.);
#367=ORIENTED_EDGE('',*,*,#405,.F.);
#368=ORIENTED_EDGE('',*,*,#402,.F.);
#369=CARTESIAN_POINT('',(52.0,20.5,2.3347));
#370=DIRECTION('',(0.0,-1.0,0.0));
#371=DIRECTION('',(0.0,0.0,-1.0));
#372=ORIENTED_EDGE('',*,*,#422,.T.);
#373=ORIENTED_EDGE('',*,*,#408,.T.);
#374=CARTESIAN_POINT('',(0.0,0.0,120.0));
#375=DIRECTION('',(1.0,0.0,0.0));
#376=DIRECTION('',(0.0,-1.0,0.0));
#377=ORIENTED_EDGE('',*,*,#421,.T.);
#378=ORIENTED_EDGE('',*,*,#407,.T.);
#379=CARTESIAN_POINT('',(0.0,0.0,80.0));
#380=DIRECTION('',(1.0,0.0,0.0));
#381=DIRECTION('',(0.0,-1.0,0.0));
#382=ORIENTED_EDGE('',*,*,#399,.T.);
#383=ORIENTED_EDGE('',*,*,#432,.F.);
#384=CARTESIAN_POINT('',(36.0,0.0,6.5));
#385=DIRECTION('',(0.0,0.0,1.0));
#386=DIRECTION('',(1.0,0.0,0.0));
#387=ORIENTED_EDGE('',*,*,#398,.T.);
#388=ORIENTED_EDGE('',*,*,#432,.T.);
#389=ORIENTED_EDGE('',*,*,#433,.F.);
#390=CARTESIAN_POINT('',(36.0,0.0,6.5));
#391=DIRECTION('',(0.0,0.0,-1.0));
#392=DIRECTION('',(-1.0,0.0,0.0));
#393=ORIENTED_EDGE('',*,*,#433,.T.);
#394=ORIENTED_EDGE('',*,*,#426,.T.);
#395=CARTESIAN_POINT('',(36.0,0.0,7.0));
#396=DIRECTION('',(0.0,0.0,-1.0));
#397=DIRECTION('',(1.0,0.0,0.0));
#398=EDGE_CURVE('',#434,#435,#436,.T.);
#399=EDGE_CURVE('',#435,#434,#437,.T.);
#400=EDGE_CURVE('',#438,#439,#440,.T.);
#401=EDGE_CURVE('',#441,#438,#442,.T.);
#402=EDGE_CURVE('',#441,#443,#444,.T.);
#403=EDGE_CURVE('',#443,#439,#445,.T.);
#404=EDGE_CURVE('',#439,#446,#447,.T.);
#405=EDGE_CURVE('',#443,#448,#449,.T.);
#406=EDGE_CURVE('',#448,#446,#450,.T.);
#407=EDGE_CURVE('',#451,#451,#452,.T.);
#408=EDGE_CURVE('',#453,#453,#454,.T.);
#409=EDGE_CURVE('',#446,#455,#456,.T.);
#410=EDGE_CURVE('',#448,#457,#458,.T.);
#411=EDGE_CURVE('',#457,#455,#459,.T.);
#412=EDGE_CURVE('',#460,#438,#461,.T.);
#413=EDGE_CURVE('',#462,#460,#463,.T.);
#414=EDGE_CURVE('',#462,#441,#464,.T.);
#415=EDGE_CURVE('',#455,#465,#466,.T.);
#416=EDGE_CURVE('',#457,#467,#468,.T.);
#417=EDGE_CURVE('',#467,#465,#469,.T.);
#418=EDGE_CURVE('',#465,#470,#471,.T.);
#419=EDGE_CURVE('',#467,#472,#473,.T.);
#420=EDGE_CURVE('',#472,#470,#474,.T.);
#421=EDGE_CURVE('',#475,#475,#476,.T.);
#422=EDGE_CURVE('',#477,#477,#478,.T.);
#423=EDGE_CURVE('',#470,#479,#480,.T.);
#424=EDGE_CURVE('',#472,#481,#482,.T.);
#425=EDGE_CURVE('',#481,#479,#483,.T.);
#426=EDGE_CURVE('',#484,#484,#485,.T.);
#427=EDGE_CURVE('',#479,#486,#487,.T.);
#428=EDGE_CURVE('',#481,#488,#489,.T.);
#429=EDGE_CURVE('',#488,#486,#490,.T.);
#430=EDGE_CURVE('',#486,#460,#491,.T.);
#431=EDGE_CURVE('',#488,#462,#492,.T.);
#432=EDGE_CURVE('',#435,#434,#493,.T.);
#433=EDGE_CURVE('',#494,#494,#495,.F.);
#434=VERTEX_POINT('',#496);
#435=VERTEX_POINT('',#497);
#436=LINE('',#498,#499);
#437=ELLIPSE('',#500,14.8063431286027,14.75);
#438=VERTEX_POINT('',#501);
#439=VERTEX_POINT('',#502);
#440=LINE('',#503,#504);
#441=VERTEX_POINT('',#505);
#442=LINE('',#506,#507);
#443=VERTEX_POINT('',#508);
#444=LINE('',#509,#510);
#445=LINE('',#511,#512);
#446=VERTEX_POINT('',#513);
#447=CIRCLE('',#514,4.0);
#448=VERTEX_POINT('',#515);
#449=CIRCLE('',#516,4.0);
#450=LINE('',#517,#518);
#451=VERTEX_POINT('',#519);
#452=CIRCLE('',#520,4.5);
#453=VERTEX_POINT('',#521);
#454=CIRCLE('',#522,4.5);
#455=VERTEX_POINT('',#523);
#456=LINE('',#524,#525);
#457=VERTEX_POINT('',#526);
#458=LINE('',#527,#528);
#459=LINE('',#529,#530);
#460=VERTEX_POINT('',#531);
#461=CIRCLE('',#532,4.0);
#462=VERTEX_POINT('',#533);
#463=LINE('',#534,#535);
#464=CIRCLE('',#536,4.0);
#465=VERTEX_POINT('',#537);
#466=CIRCLE('',#538,4.0);
#467=VERTEX_POINT('',#539);
#468=CIRCLE('',#540,4.0);
#469=LINE('',#541,#542);
#470=VERTEX_POINT('',#543);
#471=LINE('',#544,#545);
#472=VERTEX_POINT('',#546);
#473=LINE('',#547,#548);
#474=LINE('',#549,#550);
#475=VERTEX_POINT('',#551);
#476=CIRCLE('',#552,4.5);
#477=VERTEX_POINT('',#553);
#478=CIRCLE('',#554,4.5);
#479=VERTEX_POINT('',#555);
#480=LINE('',#556,#557);
#481=VERTEX_POINT('',#558);
#482=LINE('',#559,#560);
#483=LINE('',#561,#562);
#484=VERTEX_POINT('',#563);
#485=CIRCLE('',#564,6.75);
#486=VERTEX_POINT('',#565);
#487=LINE('',#566,#567);
#488=VERTEX_POINT('',#568);
#489=LINE('',#569,#570);
#490=LINE('',#571,#572);
#491=LINE('',#573,#574);
#492=LINE('',#575,#576);
#493=CIRCLE('',#577,14.75);
#494=VERTEX_POINT('',#578);
#495=CIRCLE('',#579,6.75);
#496=CARTESIAN_POINT('',(50.2852657545023,-3.6733747866564,6.5));
#497=CARTESIAN_POINT('',(50.2852657545023,3.6733747866564,6.5));
#498=CARTESIAN_POINT('',(50.2852657545023,20.5,6.5));
#499=VECTOR('',#580,1.0);
#500=AXIS2_PLACEMENT_3D('',#581,#582,#583);
#501=CARTESIAN_POINT('',(52.3486245854575,-20.5,6.31947865111911));
#502=CARTESIAN_POINT('',(9.65137541454252,-20.5,10.0550213488809));
#503=CARTESIAN_POINT('',(31.0,-20.5,8.18725));
#504=VECTOR('',#584,1.0);
#505=CARTESIAN_POINT('',(52.3486245854575,20.5,6.31947865111911));
#506=CARTESIAN_POINT('',(52.3486245854575,20.5,6.31947865111911));
#507=VECTOR('',#585,1.0);
#508=CARTESIAN_POINT('',(9.65137541454252,20.5,10.0550213488809));
#509=CARTESIAN_POINT('',(31.0,20.5,8.18725));
#510=VECTOR('',#586,1.0);
#511=CARTESIAN_POINT('',(9.65137541454252,20.5,10.0550213488809));
#512=VECTOR('',#587,1.0);
#513=CARTESIAN_POINT('',(6.0,-20.5,14.0398));
#514=AXIS2_PLACEMENT_3D('',#588,#589,#590);
#515=CARTESIAN_POINT('',(6.0,20.5,14.0398));
#516=AXIS2_PLACEMENT_3D('',#591,#592,#593);
#517=CARTESIAN_POINT('',(6.0,20.5,14.0398));
#518=VECTOR('',#594,1.0);
#519=CARTESIAN_POINT('',(6.0,0.0,75.5));
#520=AXIS2_PLACEMENT_3D('',#595,#596,#597);
#521=CARTESIAN_POINT('',(6.0,0.0,115.5));
#522=AXIS2_PLACEMENT_3D('',#598,#599,#600);
#523=CARTESIAN_POINT('',(6.0,-20.5,136.0));
#524=CARTESIAN_POINT('',(6.0,-20.5,75.0199));
#525=VECTOR('',#601,1.0);
#526=CARTESIAN_POINT('',(6.0,20.5,136.0));
#527=CARTESIAN_POINT('',(6.0,20.5,75.0199));
#528=VECTOR('',#602,1.0);
#529=CARTESIAN_POINT('',(6.0,20.5,136.0));
#530=VECTOR('',#603,1.0);
#531=CARTESIAN_POINT('',(56.0,-20.5,2.3347));
#532=AXIS2_PLACEMENT_3D('',#604,#605,#606);
#533=CARTESIAN_POINT('',(56.0,20.5,2.3347));
#534=CARTESIAN_POINT('',(56.0,20.5,2.3347));
#535=VECTOR('',#607,1.0);
#536=AXIS2_PLACEMENT_3D('',#608,#609,#610);
#537=CARTESIAN_POINT('',(2.0,-20.5,140.0));
#538=AXIS2_PLACEMENT_3D('',#611,#612,#613);
#539=CARTESIAN_POINT('',(2.0,20.5,140.0));
#540=AXIS2_PLACEMENT_3D('',#614,#615,#616);
#541=CARTESIAN_POINT('',(2.0,20.5,140.0));
#542=VECTOR('',#617,1.0);
#543=CARTESIAN_POINT('',(0.0,-20.5,140.0));
#544=CARTESIAN_POINT('',(1.0,-20.5,140.0));
#545=VECTOR('',#618,1.0);
#546=CARTESIAN_POINT('',(0.0,20.5,140.0));
#547=CARTESIAN_POINT('',(1.0,20.5,140.0));
#548=VECTOR('',#619,1.0);
#549=CARTESIAN_POINT('',(0.0,20.5,140.0));
#550=VECTOR('',#620,1.0);
#551=CARTESIAN_POINT('',(0.0,-4.5,80.0));
#552=AXIS2_PLACEMENT_3D('',#621,#622,#623);
#553=CARTESIAN_POINT('',(0.0,-4.5,120.0));
#554=AXIS2_PLACEMENT_3D('',#624,#625,#626);
#555=CARTESIAN_POINT('',(0.0,-20.5,0.0));
#556=CARTESIAN_POINT('',(0.0,-20.5,70.0));
#557=VECTOR('',#627,1.0);
#558=CARTESIAN_POINT('',(0.0,20.5,0.0));
#559=CARTESIAN_POINT('',(0.0,20.5,70.0));
#560=VECTOR('',#628,1.0);
#561=CARTESIAN_POINT('',(0.0,20.5,0.0));
#562=VECTOR('',#629,1.0);
#563=CARTESIAN_POINT('',(29.25,0.0,-6.93889390390723E-15));
#564=AXIS2_PLACEMENT_3D('',#630,#631,#632);
#565=CARTESIAN_POINT('',(56.0,-20.5,-6.93889390390723E-15));
#566=CARTESIAN_POINT('',(28.0,-20.5,-6.93889390390723E-15));
#567=VECTOR('',#633,1.0);
#568=CARTESIAN_POINT('',(56.0,20.5,-6.93889390390723E-15));
#569=CARTESIAN_POINT('',(28.0,20.5,-6.93889390390723E-15));
#570=VECTOR('',#634,1.0);
#571=CARTESIAN_POINT('',(56.0,20.5,-6.93889390390723E-15));
#572=VECTOR('',#635,1.0);
#573=CARTESIAN_POINT('',(56.0,-20.5,1.16735));
#574=VECTOR('',#636,1.0);
#575=CARTESIAN_POINT('',(56.0,20.5,1.16735));
#576=VECTOR('',#637,1.0);
#577=AXIS2_PLACEMENT_3D('',#638,#639,#640);
#578=CARTESIAN_POINT('',(29.25,-1.65327317884893E-15,6.5));
#579=AXIS2_PLACEMENT_3D('',#641,#642,#643);
#580=DIRECTION('',(0.0,1.0,0.0));
#581=CARTESIAN_POINT('',(36.0,0.0,7.74980464107201));
#582=DIRECTION('',(0.0871561463643704,0.0,0.996194662779776));
#583=DIRECTION('',(-0.996194662779776,0.0,0.0871561463643704));
#584=DIRECTION('',(-0.996194662779776,0.0,0.0871561463643704));
#585=DIRECTION('',(0.0,-1.0,0.0));
#586=DIRECTION('',(-0.996194662779776,0.0,0.0871561463643704));
#587=DIRECTION('',(0.0,-1.0,0.0));
#588=CARTESIAN_POINT('',(10.0,-20.5,14.0398));
#589=DIRECTION('',(0.0,1.0,0.0));
#590=DIRECTION('',(0.0,0.0,-1.0));
#591=CARTESIAN_POINT('',(10.0,20.5,14.0398));
#592=DIRECTION('',(0.0,1.0,0.0));
#593=DIRECTION('',(0.0,0.0,-1.0));
#594=DIRECTION('',(0.0,-1.0,0.0));
#595=CARTESIAN_POINT('',(6.0,0.0,80.0));
#596=DIRECTION('',(1.0,0.0,1.22460635382238E-16));
#597=DIRECTION('',(1.22460635382238E-16,0.0,-1.0));
#598=CARTESIAN_POINT('',(6.0,0.0,120.0));
#599=DIRECTION('',(1.0,0.0,1.22460635382238E-16));
#600=DIRECTION('',(1.22460635382238E-16,0.0,-1.0));
#601=DIRECTION('',(-1.22460635382238E-16,0.0,1.0));
#602=DIRECTION('',(-1.22460635382238E-16,0.0,1.0));
#603=DIRECTION('',(0.0,-1.0,0.0));
#604=CARTESIAN_POINT('',(52.0,-20.5,2.3347));
#605=DIRECTION('',(0.0,-1.0,0.0));
#606=DIRECTION('',(0.0,0.0,-1.0));
#607=DIRECTION('',(0.0,-1.0,0.0));
#608=CARTESIAN_POINT('',(52.0,20.5,2.3347));
#609=DIRECTION('',(0.0,-1.0,0.0));
#610=DIRECTION('',(0.0,0.0,-1.0));
#611=CARTESIAN_POINT('',(1.99999999999997,-20.5,136.0));
#612=DIRECTION('',(0.0,-1.0,0.0));
#613=DIRECTION('',(0.0,0.0,-1.0));
#614=CARTESIAN_POINT('',(1.99999999999997,20.5,136.0));
#615=DIRECTION('',(0.0,-1.0,0.0));
#616=DIRECTION('',(0.0,0.0,-1.0));
#617=DIRECTION('',(0.0,-1.0,0.0));
#618=DIRECTION('',(-1.0,0.0,-6.12303176911189E-17));
#619=DIRECTION('',(-1.0,0.0,-6.12303176911189E-17));
#620=DIRECTION('',(0.0,-1.0,0.0));
#621=CARTESIAN_POINT('',(0.0,0.0,80.0));
#622=DIRECTION('',(-1.0,0.0,0.0));
#623=DIRECTION('',(0.0,-1.0,0.0));
#624=CARTESIAN_POINT('',(0.0,0.0,120.0));
#625=DIRECTION('',(-1.0,0.0,0.0));
#626=DIRECTION('',(0.0,-1.0,0.0));
#627=DIRECTION('',(0.0,0.0,-1.0));
#628=DIRECTION('',(0.0,0.0,-1.0));
#629=DIRECTION('',(0.0,-1.0,0.0));
#630=CARTESIAN_POINT('',(36.0,0.0,-6.93889390390723E-15));
#631=DIRECTION('',(0.0,0.0,-1.0));
#632=DIRECTION('',(-1.0,0.0,0.0));
#633=DIRECTION('',(1.0,0.0,0.0));
#634=DIRECTION('',(1.0,0.0,0.0));
#635=DIRECTION('',(0.0,-1.0,0.0));
#636=DIRECTION('',(-1.22460635382238E-16,0.0,1.0));
#637=DIRECTION('',(-1.22460635382238E-16,0.0,1.0));
#638=CARTESIAN_POINT('',(36.0,0.0,6.5));
#639=DIRECTION('',(0.0,0.0,1.0));
#640=DIRECTION('',(1.0,0.0,0.0));
#641=CARTESIAN_POINT('',(36.0,0.0,6.5));
#642=DIRECTION('',(0.0,0.0,-1.0));
#643=DIRECTION('',(-1.0,0.0,0.0));
ENDSEC;
END-ISO-10303-21;
