ISO-10303-21;
HEADER;
FILE_DESCRIPTION(('STEP AP203'),'1');
FILE_NAME('ERGO00E6059.stp','2025-04-15T08:50:31',(' '),(' '),'Spatial InterOp 3D',' ',' ');
FILE_SCHEMA(('CONFIG_CONTROL_DESIGN'));
ENDSEC;
DATA;
#1=DESIGN_CONTEXT('',#59,'design');
#2=APPLICATION_PROTOCOL_DEFINITION('INTERNATIONAL STANDARD','config_control_design',1994,#59);
#3=PRODUCT_CATEGORY_RELATIONSHIP('NONE','NONE',#60,#61);
#4=DATE_AND_TIME(#62,#63);
#5=DATE_TIME_ROLE('creation_date');
#6=DATE_TIME_ROLE('classification_date');
#7=PERSON_AND_ORGANIZATION_ROLE('creator');
#8=PERSON_AND_ORGANIZATION_ROLE('design_supplier');
#9=PERSON_AND_ORGANIZATION_ROLE('classification_officer');
#10=PERSON_AND_ORGANIZATION_ROLE('design_owner');
#11=APPROVAL_PERSON_ORGANIZATION(#64,#65,#66);
#12=APPROVAL_DATE_TIME(#4,#65);
#13=CC_DESIGN_APPROVAL(#65,(#67,#68,#69));
#14=CC_DESIGN_DATE_AND_TIME_ASSIGNMENT(#4,#5,(#69));
#15=CC_DESIGN_DATE_AND_TIME_ASSIGNMENT(#4,#6,(#67));
#16=CC_DESIGN_PERSON_AND_ORGANIZATION_ASSIGNMENT(#64,#10,(#70));
#17=CC_DESIGN_PERSON_AND_ORGANIZATION_ASSIGNMENT(#64,#7,(#69));
#18=CC_DESIGN_PERSON_AND_ORGANIZATION_ASSIGNMENT(#64,#7,(#68));
#19=CC_DESIGN_PERSON_AND_ORGANIZATION_ASSIGNMENT(#64,#8,(#68));
#20=CC_DESIGN_SECURITY_CLASSIFICATION(#67,(#68));
#21=CC_DESIGN_PERSON_AND_ORGANIZATION_ASSIGNMENT(#64,#9,(#67));
#22=SHAPE_DEFINITION_REPRESENTATION(#71,#72);
#23= (GEOMETRIC_REPRESENTATION_CONTEXT(3)GLOBAL_UNCERTAINTY_ASSIGNED_CONTEXT((#75))GLOBAL_UNIT_ASSIGNED_CONTEXT((#77,#78,#79))REPRESENTATION_CONTEXT('NONE','WORKSPACE'));
#24=PROPERTY_DEFINITION_REPRESENTATION(#81,#82);
#25=GENERAL_PROPERTY_ASSOCIATION('','',#83,#81);
#26=PROPERTY_DEFINITION_REPRESENTATION(#84,#85);
#27=GENERAL_PROPERTY_ASSOCIATION('','',#86,#84);
#28=PROPERTY_DEFINITION_REPRESENTATION(#87,#88);
#29=GENERAL_PROPERTY_ASSOCIATION('','',#89,#87);
#30=PROPERTY_DEFINITION_REPRESENTATION(#90,#91);
#31=GENERAL_PROPERTY_ASSOCIATION('','',#92,#90);
#32=PROPERTY_DEFINITION_REPRESENTATION(#93,#94);
#33=GENERAL_PROPERTY_ASSOCIATION('','',#95,#93);
#34=PROPERTY_DEFINITION_REPRESENTATION(#96,#97);
#35=GENERAL_PROPERTY_ASSOCIATION('','',#98,#96);
#36=PROPERTY_DEFINITION_REPRESENTATION(#99,#100);
#37=GENERAL_PROPERTY_ASSOCIATION('','',#101,#99);
#38=PROPERTY_DEFINITION_REPRESENTATION(#102,#103);
#39=GENERAL_PROPERTY_ASSOCIATION('','',#104,#102);
#40=PROPERTY_DEFINITION_REPRESENTATION(#105,#106);
#41=GENERAL_PROPERTY_ASSOCIATION('','',#107,#105);
#42=PROPERTY_DEFINITION_REPRESENTATION(#108,#109);
#43=GENERAL_PROPERTY_ASSOCIATION('','',#110,#108);
#44=PROPERTY_DEFINITION_REPRESENTATION(#111,#112);
#45=GENERAL_PROPERTY_ASSOCIATION('','',#113,#111);
#46=PROPERTY_DEFINITION_REPRESENTATION(#114,#115);
#47=GENERAL_PROPERTY_ASSOCIATION('','',#116,#114);
#48=PROPERTY_DEFINITION_REPRESENTATION(#117,#118);
#49=GENERAL_PROPERTY_ASSOCIATION('','',#119,#117);
#50=PROPERTY_DEFINITION_REPRESENTATION(#120,#121);
#51=GENERAL_PROPERTY_ASSOCIATION('','',#122,#120);
#52=PROPERTY_DEFINITION_REPRESENTATION(#123,#124);
#53=GENERAL_PROPERTY_ASSOCIATION('','',#125,#123);
#54=PROPERTY_DEFINITION_REPRESENTATION(#126,#127);
#55=GENERAL_PROPERTY_ASSOCIATION('','',#128,#126);
#59=APPLICATION_CONTEXT('CONFIGURATION CONTROLLED 3D DESIGNS OF MECHANICAL PARTS AND ASSEMBLIES');
#60=PRODUCT_CATEGORY('part','NONE');
#61=PRODUCT_RELATED_PRODUCT_CATEGORY('detail',' ',(#70));
#62=CALENDAR_DATE(2025,15,3);
#63=LOCAL_TIME(10,50,31.0,#129);
#64=PERSON_AND_ORGANIZATION(#130,#131);
#65=APPROVAL(#132,'SOLID MODEL');
#66=APPROVAL_ROLE('APPROVED');
#67=SECURITY_CLASSIFICATION('','',#133);
#68=PRODUCT_DEFINITION_FORMATION_WITH_SPECIFIED_SOURCE('A','NONE',#70,.NOT_KNOWN.);
#69=PRODUCT_DEFINITION('','NONE',#68,#1);
#70=PRODUCT('Rampe LED 570mm','%#@![$ComplementaryPartNumber=ERGO00E6059]','Rampe LED 570mm',(#134));
#71=PRODUCT_DEFINITION_SHAPE('NONE','NONE',#69);
#72=ADVANCED_BREP_SHAPE_REPRESENTATION('1',(#135,#136),#23);
#75=UNCERTAINTY_MEASURE_WITH_UNIT(LENGTH_MEASURE(0.001),#77,'','');
#77= (CONVERSION_BASED_UNIT('MILLIMETRE',#139)LENGTH_UNIT()NAMED_UNIT(#142));
#78= (NAMED_UNIT(#144)PLANE_ANGLE_UNIT()SI_UNIT($,.RADIAN.));
#79= (NAMED_UNIT(#144)SOLID_ANGLE_UNIT()SI_UNIT($,.STERADIAN.));
#81=PROPERTY_DEFINITION('PdmObjectId','',#69);
#82=REPRESENTATION('',(#150),#23);
#83=GENERAL_PROPERTY('','19_1756687c-9fbb-4a3a-9d8e-1e076f6d032d&17_7497_17_19','');
#84=PROPERTY_DEFINITION('Type de production hellomoov','',#69);
#85=REPRESENTATION('',(#151),#23);
#86=GENERAL_PROPERTY('','pi\X2\00E8\X0\ce du stock','');
#87=PROPERTY_DEFINITION('FOURNISSEUR2','',#69);
#88=REPRESENTATION('',(#152),#23);
#89=GENERAL_PROPERTY('','\X2\00E0\X0\ d\X2\00E9\X0\finir','');
#90=PROPERTY_DEFINITION('FOURNISSEUR','',#69);
#91=REPRESENTATION('',(#153),#23);
#92=GENERAL_PROPERTY('','\X2\00E0\X0\ d\X2\00E9\X0\finir','');
#93=PROPERTY_DEFINITION('DESIGNATION_ENG','',#69);
#94=REPRESENTATION('',(#154),#23);
#95=GENERAL_PROPERTY('','','');
#96=PROPERTY_DEFINITION('CODE_TRANSEPT','',#69);
#97=REPRESENTATION('',(#155),#23);
#98=GENERAL_PROPERTY('','-','');
#99=PROPERTY_DEFINITION('CATALOGUE_ID','',#69);
#100=REPRESENTATION('',(#156),#23);
#101=GENERAL_PROPERTY('','0000','');
#102=PROPERTY_DEFINITION('CATALOGUE_LETTRE','',#69);
#103=REPRESENTATION('',(#157),#23);
#104=GENERAL_PROPERTY('','E','');
#105=PROPERTY_DEFINITION('CATALOGUE_LIGNE','',#69);
#106=REPRESENTATION('',(#158),#23);
#107=GENERAL_PROPERTY('','08','');
#108=PROPERTY_DEFINITION('CATALOGUE_PREFIXE','',#69);
#109=REPRESENTATION('',(#159),#23);
#110=GENERAL_PROPERTY('','FIXE','');
#111=PROPERTY_DEFINITION('D\X2\00E9\X0\signation du mat\X2\00E9\X0\riau','',#69);
#112=REPRESENTATION('',(#160),#23);
#113=GENERAL_PROPERTY('','Acier','');
#114=PROPERTY_DEFINITION('Nom du mat\X2\00E9\X0\riau','',#69);
#115=REPRESENTATION('',(#161),#23);
#116=GENERAL_PROPERTY('','Acier','');
#117=PROPERTY_DEFINITION('Manufacturer','',#69);
#118=REPRESENTATION('',(#162),#23);
#119=GENERAL_PROPERTY('','HELLOMOOV','');
#120=PROPERTY_DEFINITION('CreationDate','',#69);
#121=REPRESENTATION('',(#163),#23);
#122=GENERAL_PROPERTY('','17/07/2024 14:57:19','');
#123=PROPERTY_DEFINITION('Minor Revision','',#69);
#124=REPRESENTATION('',(#164),#23);
#125=GENERAL_PROPERTY('','2','');
#126=PROPERTY_DEFINITION('Complementary Part Number','',#69);
#127=REPRESENTATION('',(#165),#23);
#128=GENERAL_PROPERTY('','ERGO00E6059','');
#129=COORDINATED_UNIVERSAL_TIME_OFFSET(1,0,.AHEAD.);
#130=PERSON('','UNSPECIFIED',$,$,$,$);
#131=ORGANIZATION('UNSPECIFIED','UNSPECIFIED','UNSPECIFIED');
#132=APPROVAL_STATUS('approved');
#133=SECURITY_CLASSIFICATION_LEVEL('unclassified');
#134=MECHANICAL_CONTEXT('',#59,'mechanical');
#135=MANIFOLD_SOLID_BREP('1',#166);
#136=AXIS2_PLACEMENT_3D('',#167,#168,#169);
#139=LENGTH_MEASURE_WITH_UNIT(LENGTH_MEASURE(1.0),#170);
#142=DIMENSIONAL_EXPONENTS(1.0,0.0,0.0,0.0,0.0,0.0,0.0);
#144=DIMENSIONAL_EXPONENTS(0.0,0.0,0.0,0.0,0.0,0.0,0.0);
#150=DESCRIPTIVE_REPRESENTATION_ITEM('','19_1756687c-9fbb-4a3a-9d8e-1e076f6d032d&17_7497_17_19');
#151=DESCRIPTIVE_REPRESENTATION_ITEM('','pi\X2\00E8\X0\ce du stock');
#152=DESCRIPTIVE_REPRESENTATION_ITEM('','\X2\00E0\X0\ d\X2\00E9\X0\finir');
#153=DESCRIPTIVE_REPRESENTATION_ITEM('','\X2\00E0\X0\ d\X2\00E9\X0\finir');
#154=DESCRIPTIVE_REPRESENTATION_ITEM('','');
#155=DESCRIPTIVE_REPRESENTATION_ITEM('','-');
#156=DESCRIPTIVE_REPRESENTATION_ITEM('','0000');
#157=DESCRIPTIVE_REPRESENTATION_ITEM('','E');
#158=DESCRIPTIVE_REPRESENTATION_ITEM('','08');
#159=DESCRIPTIVE_REPRESENTATION_ITEM('','FIXE');
#160=DESCRIPTIVE_REPRESENTATION_ITEM('','Acier');
#161=DESCRIPTIVE_REPRESENTATION_ITEM('','Acier');
#162=DESCRIPTIVE_REPRESENTATION_ITEM('','HELLOMOOV');
#163=DESCRIPTIVE_REPRESENTATION_ITEM('','17/07/2024 14:57:19');
#164=DESCRIPTIVE_REPRESENTATION_ITEM('','2');
#165=DESCRIPTIVE_REPRESENTATION_ITEM('','ERGO00E6059');
#166=CLOSED_SHELL('',(#171,#172,#173,#174,#175,#176));
#167=CARTESIAN_POINT('',(0.0,0.0,0.0));
#168=DIRECTION('',(0.0,0.0,1.0));
#169=DIRECTION('',(1.0,0.0,0.0));
#170= (NAMED_UNIT(#142)LENGTH_UNIT()SI_UNIT(.MILLI.,.METRE.));
#171=ADVANCED_FACE('',(#178),#179,.T.);
#172=ADVANCED_FACE('',(#180),#181,.T.);
#173=ADVANCED_FACE('',(#182),#183,.F.);
#174=ADVANCED_FACE('',(#184),#185,.F.);
#175=ADVANCED_FACE('',(#186),#187,.F.);
#176=ADVANCED_FACE('',(#188),#189,.F.);
#178=FACE_OUTER_BOUND('',#190,.T.);
#179=CYLINDRICAL_SURFACE('',#191,17.5);
#180=FACE_OUTER_BOUND('',#192,.T.);
#181=PLANE('',#193);
#182=FACE_OUTER_BOUND('',#194,.T.);
#183=PLANE('',#195);
#184=FACE_OUTER_BOUND('',#196,.T.);
#185=PLANE('',#197);
#186=FACE_OUTER_BOUND('',#198,.T.);
#187=PLANE('',#199);
#188=FACE_OUTER_BOUND('',#200,.T.);
#189=PLANE('',#201);
#190=EDGE_LOOP('',(#202,#203,#204,#205));
#191=AXIS2_PLACEMENT_3D('',#206,#207,#208);
#192=EDGE_LOOP('',(#209,#210,#211,#212));
#193=AXIS2_PLACEMENT_3D('',#213,#214,#215);
#194=EDGE_LOOP('',(#216,#217,#218,#219));
#195=AXIS2_PLACEMENT_3D('',#220,#221,#222);
#196=EDGE_LOOP('',(#223,#224,#225,#226));
#197=AXIS2_PLACEMENT_3D('',#227,#228,#229);
#198=EDGE_LOOP('',(#230,#231,#232,#233));
#199=AXIS2_PLACEMENT_3D('',#234,#235,#236);
#200=EDGE_LOOP('',(#237,#238,#239,#240));
#201=AXIS2_PLACEMENT_3D('',#241,#242,#243);
#202=ORIENTED_EDGE('',*,*,#244,.T.);
#203=ORIENTED_EDGE('',*,*,#245,.F.);
#204=ORIENTED_EDGE('',*,*,#246,.F.);
#205=ORIENTED_EDGE('',*,*,#247,.T.);
#206=CARTESIAN_POINT('',(-2.60208521396521E-15,285.0,-5.0));
#207=DIRECTION('',(0.0,-1.0,0.0));
#208=DIRECTION('',(0.0,0.0,-1.0));
#209=ORIENTED_EDGE('',*,*,#248,.T.);
#210=ORIENTED_EDGE('',*,*,#249,.T.);
#211=ORIENTED_EDGE('',*,*,#250,.T.);
#212=ORIENTED_EDGE('',*,*,#246,.T.);
#213=CARTESIAN_POINT('',(-2.60208521396521E-15,295.0,-5.0));
#214=DIRECTION('',(0.0,1.0,0.0));
#215=DIRECTION('',(0.0,0.0,1.0));
#216=ORIENTED_EDGE('',*,*,#251,.T.);
#217=ORIENTED_EDGE('',*,*,#247,.F.);
#218=ORIENTED_EDGE('',*,*,#250,.F.);
#219=ORIENTED_EDGE('',*,*,#252,.T.);
#220=CARTESIAN_POINT('',(17.5,285.0,22.5));
#221=DIRECTION('',(-1.0,0.0,3.78485122031303E-16));
#222=DIRECTION('',(3.78485122031303E-16,0.0,1.0));
#223=ORIENTED_EDGE('',*,*,#253,.T.);
#224=ORIENTED_EDGE('',*,*,#254,.F.);
#225=ORIENTED_EDGE('',*,*,#248,.F.);
#226=ORIENTED_EDGE('',*,*,#245,.T.);
#227=CARTESIAN_POINT('',(-17.5,285.0,-5.0));
#228=DIRECTION('',(1.0,0.0,-1.26161707343768E-16));
#229=DIRECTION('',(-1.26161707343768E-16,0.0,-1.0));
#230=ORIENTED_EDGE('',*,*,#255,.T.);
#231=ORIENTED_EDGE('',*,*,#252,.F.);
#232=ORIENTED_EDGE('',*,*,#249,.F.);
#233=ORIENTED_EDGE('',*,*,#254,.T.);
#234=CARTESIAN_POINT('',(-17.5,285.0,22.5));
#235=DIRECTION('',(-1.98254111540206E-16,0.0,-1.0));
#236=DIRECTION('',(-1.0,0.0,1.98254111540206E-16));
#237=ORIENTED_EDGE('',*,*,#253,.F.);
#238=ORIENTED_EDGE('',*,*,#244,.F.);
#239=ORIENTED_EDGE('',*,*,#251,.F.);
#240=ORIENTED_EDGE('',*,*,#255,.F.);
#241=CARTESIAN_POINT('',(-2.60208521396521E-15,-285.0,-5.0));
#242=DIRECTION('',(0.0,1.0,0.0));
#243=DIRECTION('',(0.0,0.0,1.0));
#244=EDGE_CURVE('',#256,#257,#258,.T.);
#245=EDGE_CURVE('',#259,#257,#260,.T.);
#246=EDGE_CURVE('',#261,#259,#262,.T.);
#247=EDGE_CURVE('',#261,#256,#263,.T.);
#248=EDGE_CURVE('',#259,#264,#265,.T.);
#249=EDGE_CURVE('',#264,#266,#267,.T.);
#250=EDGE_CURVE('',#266,#261,#268,.T.);
#251=EDGE_CURVE('',#269,#256,#270,.T.);
#252=EDGE_CURVE('',#266,#269,#271,.T.);
#253=EDGE_CURVE('',#257,#272,#273,.T.);
#254=EDGE_CURVE('',#264,#272,#274,.T.);
#255=EDGE_CURVE('',#272,#269,#275,.T.);
#256=VERTEX_POINT('',#276);
#257=VERTEX_POINT('',#277);
#258=CIRCLE('',#278,17.5);
#259=VERTEX_POINT('',#279);
#260=LINE('',#280,#281);
#261=VERTEX_POINT('',#282);
#262=CIRCLE('',#283,17.5);
#263=LINE('',#284,#285);
#264=VERTEX_POINT('',#286);
#265=LINE('',#287,#288);
#266=VERTEX_POINT('',#289);
#267=LINE('',#290,#291);
#268=LINE('',#292,#293);
#269=VERTEX_POINT('',#294);
#270=LINE('',#295,#296);
#271=LINE('',#297,#298);
#272=VERTEX_POINT('',#299);
#273=LINE('',#300,#301);
#274=LINE('',#302,#303);
#275=LINE('',#304,#305);
#276=CARTESIAN_POINT('',(17.5,-285.0,-5.0));
#277=CARTESIAN_POINT('',(-17.5,-285.0,-5.0));
#278=AXIS2_PLACEMENT_3D('',#306,#307,#308);
#279=CARTESIAN_POINT('',(-17.5,295.0,-5.0));
#280=CARTESIAN_POINT('',(-17.5,285.0,-5.0));
#281=VECTOR('',#309,1.0);
#282=CARTESIAN_POINT('',(17.5,295.0,-5.0));
#283=AXIS2_PLACEMENT_3D('',#310,#311,#312);
#284=CARTESIAN_POINT('',(17.5,285.0,-5.0));
#285=VECTOR('',#313,1.0);
#286=CARTESIAN_POINT('',(-17.5,295.0,22.5));
#287=CARTESIAN_POINT('',(-17.5,295.0,-5.0));
#288=VECTOR('',#314,1.0);
#289=CARTESIAN_POINT('',(17.5,295.0,22.5));
#290=CARTESIAN_POINT('',(-17.5,295.0,22.5));
#291=VECTOR('',#315,1.0);
#292=CARTESIAN_POINT('',(17.5,295.0,22.5));
#293=VECTOR('',#316,1.0);
#294=CARTESIAN_POINT('',(17.5,-285.0,22.5));
#295=CARTESIAN_POINT('',(17.5,-285.0,22.5));
#296=VECTOR('',#317,1.0);
#297=CARTESIAN_POINT('',(17.5,285.0,22.5));
#298=VECTOR('',#318,1.0);
#299=CARTESIAN_POINT('',(-17.5,-285.0,22.5));
#300=CARTESIAN_POINT('',(-17.5,-285.0,-5.0));
#301=VECTOR('',#319,1.0);
#302=CARTESIAN_POINT('',(-17.5,285.0,22.5));
#303=VECTOR('',#320,1.0);
#304=CARTESIAN_POINT('',(-17.5,-285.0,22.5));
#305=VECTOR('',#321,1.0);
#306=CARTESIAN_POINT('',(-2.60208521396521E-15,-285.0,-5.0));
#307=DIRECTION('',(0.0,1.0,0.0));
#308=DIRECTION('',(0.0,0.0,1.0));
#309=DIRECTION('',(0.0,-1.0,0.0));
#310=CARTESIAN_POINT('',(-2.60208521396521E-15,295.0,-5.0));
#311=DIRECTION('',(0.0,1.0,0.0));
#312=DIRECTION('',(0.0,0.0,1.0));
#313=DIRECTION('',(0.0,-1.0,0.0));
#314=DIRECTION('',(1.26161707343768E-16,0.0,1.0));
#315=DIRECTION('',(1.0,0.0,-1.98254111540206E-16));
#316=DIRECTION('',(-3.78485122031303E-16,0.0,-1.0));
#317=DIRECTION('',(-3.78485122031303E-16,0.0,-1.0));
#318=DIRECTION('',(0.0,-1.0,0.0));
#319=DIRECTION('',(1.26161707343768E-16,0.0,1.0));
#320=DIRECTION('',(0.0,-1.0,0.0));
#321=DIRECTION('',(1.0,0.0,-1.98254111540206E-16));
ENDSEC;
END-ISO-10303-21;
