ISO-10303-21;
HEADER;
FILE_DESCRIPTION (( 'STEP AP214' ),
    '1' );
FILE_NAME ('FIXE00E1411-Equerre 30, noir GRIS.step',
    '2023-03-24T09:53:25',
    ( 'Altae' ),
    ( '' ),
    'SwSTEP 2.0',
    'SolidWorks 2021',
    '' );
FILE_SCHEMA (( 'AUTOMOTIVE_DESIGN' ));
ENDSEC;

DATA;
#1 = AXIS2_PLACEMENT_3D ( 'NONE', #122, #276, #215 ) ;
#2 = CONICAL_SURFACE ( 'NONE', #156, 6.399999999998729372, 0.7853981633974481680 ) ;
#3 = LINE ( 'NONE', #154, #409 ) ;
#4 = LINE ( 'NONE', #247, #305 ) ;
#5 = DIRECTION ( 'NONE',  ( -1.000000000000000000, -2.371692252312513280E-16, 0.000000000000000000 ) ) ;
#6 = CIRCLE ( 'NONE', #387, 6.399999999985084287 ) ;
#7 = CARTESIAN_POINT ( 'NONE',  ( 0.000000000000000000, 30.00000000000000000, 15.00000000000000000 ) ) ;
#8 = VECTOR ( 'NONE', #176, 1000.000000000000000 ) ;
#9 = ORIENTED_EDGE ( 'NONE', *, *, #218, .F. ) ;
#10 = PRODUCT_DEFINITION ( 'UNKNOWN', '', #49, #202 ) ;
#11 = FACE_OUTER_BOUND ( 'NONE', #175, .T. ) ;
#12 = ADVANCED_FACE ( 'NONE', ( #203, #368 ), #142, .F. ) ;
#13 = CARTESIAN_POINT ( 'NONE',  ( 0.000000000000000000, 0.000000000000000000, -15.00000000000000000 ) ) ;
#14 = VECTOR ( 'NONE', #102, 1000.000000000000000 ) ;
#15 = ORIENTED_EDGE ( 'NONE', *, *, #284, .F. ) ;
#16 = CARTESIAN_POINT ( 'NONE',  ( 2.999999999929059413, 15.00000000000000000, 6.399999999928240868 ) ) ;
#17 = VERTEX_POINT ( 'NONE', #339 ) ;
#18 = LINE ( 'NONE', #16, #335 ) ;
#19 = EDGE_LOOP ( 'NONE', ( #91, #337, #231, #271 ) ) ;
#20 = MANIFOLD_SOLID_BREP ( 'Schnitt-Rotation2', #288 ) ;
#21 = DIRECTION ( 'NONE',  ( -0.000000000000000000, -0.000000000000000000, -1.000000000000000000 ) ) ;
#22 = ORIENTED_EDGE ( 'NONE', *, *, #329, .F. ) ;
#23 = CARTESIAN_POINT ( 'NONE',  ( 3.000000000000000000, 30.00000000000000000, 15.00000000000000000 ) ) ;
#24 = VERTEX_POINT ( 'NONE', #244 ) ;
#25 = EDGE_CURVE ( 'NONE', #164, #144, #98, .T. ) ;
#26 = CARTESIAN_POINT ( 'NONE',  ( 30.00000000000000000, 3.000000000000000000, -15.00000000000000000 ) ) ;
#27 = CARTESIAN_POINT ( 'NONE',  ( 0.000000000000000000, 30.00000000000000000, -15.00000000000000000 ) ) ;
#28 = AXIS2_PLACEMENT_3D ( 'NONE', #311, #382, #151 ) ;
#29 = DIRECTION ( 'NONE',  ( -1.000000000000000000, -0.000000000000000000, -0.000000000000000000 ) ) ;
#30 = PRESENTATION_STYLE_ASSIGNMENT (( #414 ) ) ;
#31 = CARTESIAN_POINT ( 'NONE',  ( 0.000000000000000000, 0.000000000000000000, 15.00000000000000000 ) ) ;
#32 = CARTESIAN_POINT ( 'NONE',  ( 8.599999999944431650, 3.000000000042744475, 0.000000000000000000 ) ) ;
#33 = VECTOR ( 'NONE', #392, 1000.000000000000000 ) ;
#34 = EDGE_CURVE ( 'NONE', #139, #73, #278, .T. ) ;
#35 = CARTESIAN_POINT ( 'NONE',  ( 15.00000000000000355, 2.999999999985904608, 0.000000000000000000 ) ) ;
#36 = DIRECTION ( 'NONE',  ( 0.7071067811865474617, 0.000000000000000000, -0.7071067811865474617 ) ) ;
#37 = EDGE_CURVE ( 'NONE', #263, #220, #114, .T. ) ;
#38 = ORIENTED_EDGE ( 'NONE', *, *, #189, .T. ) ;
#39 = LINE ( 'NONE', #190, #14 ) ;
#40 = VECTOR ( 'NONE', #163, 1000.000000000000000 ) ;
#41 = CIRCLE ( 'NONE', #226, 3.400000000012826984 ) ;
#42 = CARTESIAN_POINT ( 'NONE',  ( 0.000000000000000000, 15.00000000000000000, 3.399999999999181455 ) ) ;
#43 = VERTEX_POINT ( 'NONE', #60 ) ;
#44 = DIRECTION ( 'NONE',  ( -0.000000000000000000, -0.000000000000000000, 1.000000000000000000 ) ) ;
#45 = CARTESIAN_POINT ( 'NONE',  ( 0.000000000000000000, 30.00000000000000000, -15.00000000000000000 ) ) ;
#46 = EDGE_LOOP ( 'NONE', ( #118, #197, #238, #22 ) ) ;
#47 = CARTESIAN_POINT ( 'NONE',  ( 30.00000000000000000, 3.000000000000000000, 15.00000000000000000 ) ) ;
#48 = EDGE_LOOP ( 'NONE', ( #386, #161 ) ) ;
#49 = PRODUCT_DEFINITION_FORMATION_WITH_SPECIFIED_SOURCE ( 'ANY', '', #315, .NOT_KNOWN. ) ;
#50 = PLANE ( 'NONE',  #355 ) ;
#51 = EDGE_LOOP ( 'NONE', ( #195, #53, #224, #210 ) ) ;
#52 = DIRECTION ( 'NONE',  ( -0.000000000000000000, -1.000000000000000000, -0.000000000000000000 ) ) ;
#53 = ORIENTED_EDGE ( 'NONE', *, *, #248, .T. ) ;
#54 = DIRECTION ( 'NONE',  ( 0.7071067811865474617, 8.659560562354932858E-17, 0.7071067811865474617 ) ) ;
#55 = ORIENTED_EDGE ( 'NONE', *, *, #167, .T. ) ;
#56 = VECTOR ( 'NONE', #194, 1000.000000000000000 ) ;
#57 = EDGE_CURVE ( 'NONE', #117, #75, #3, .T. ) ;
#58 = FILL_AREA_STYLE ('',( #318 ) ) ;
#59 = ADVANCED_FACE ( 'NONE', ( #279 ), #152, .F. ) ;
#60 = CARTESIAN_POINT ( 'NONE',  ( 30.00000000000000000, 0.000000000000000000, -15.00000000000000000 ) ) ;
#61 =( NAMED_UNIT ( * ) SI_UNIT ( $, .STERADIAN. ) SOLID_ANGLE_UNIT ( ) );
#62 = AXIS2_PLACEMENT_3D ( 'NONE', #286, #67, #196 ) ;
#63 = STYLED_ITEM ( 'NONE', ( #30 ), #217 ) ;
#64 =( NAMED_UNIT ( * ) PLANE_ANGLE_UNIT ( ) SI_UNIT ( $, .RADIAN. ) );
#65 =( NAMED_UNIT ( * ) PLANE_ANGLE_UNIT ( ) SI_UNIT ( $, .RADIAN. ) );
#66 = DIRECTION ( 'NONE',  ( 0.000000000000000000, 0.000000000000000000, -1.000000000000000000 ) ) ;
#67 = DIRECTION ( 'NONE',  ( 1.606225440719266182E-17, -1.000000000000000000, 0.000000000000000000 ) ) ;
#68 = EDGE_CURVE ( 'NONE', #220, #263, #6, .T. ) ;
#69 = DIRECTION ( 'NONE',  ( -2.371692252312512294E-16, 1.000000000000000000, 0.000000000000000000 ) ) ;
#70 = ORIENTED_EDGE ( 'NONE', *, *, #389, .T. ) ;
#71 = ADVANCED_FACE ( 'NONE', ( #240 ), #95, .F. ) ;
#72 = DIRECTION ( 'NONE',  ( -1.000000000000000000, -2.710505431214298990E-16, 0.000000000000000000 ) ) ;
#73 = VERTEX_POINT ( 'NONE', #26 ) ;
#74 = LINE ( 'NONE', #249, #369 ) ;
#75 = VERTEX_POINT ( 'NONE', #380 ) ;
#76 = AXIS2_PLACEMENT_3D ( 'NONE', #45, #204, #336 ) ;
#77 = DIRECTION ( 'NONE',  ( -0.000000000000000000, -1.000000000000000000, -0.000000000000000000 ) ) ;
#78 = CARTESIAN_POINT ( 'NONE',  ( 0.000000000000000000, 15.00000000000000000, 0.000000000000000000 ) ) ;
#79 = ORIENTED_EDGE ( 'NONE', *, *, #321, .F. ) ;
#80 = FACE_OUTER_BOUND ( 'NONE', #19, .T. ) ;
#81 = EDGE_LOOP ( 'NONE', ( #201, #301 ) ) ;
#82 = UNCERTAINTY_MEASURE_WITH_UNIT (LENGTH_MEASURE( 1.000000000000000082E-05 ), #209, 'distance_accuracy_value', 'NONE');
#83 = PLANE ( 'NONE',  #76 ) ;
#84 = VERTEX_POINT ( 'NONE', #97 ) ;
#85 =( GEOMETRIC_REPRESENTATION_CONTEXT ( 3 ) GLOBAL_UNCERTAINTY_ASSIGNED_CONTEXT ( ( #206 ) ) GLOBAL_UNIT_ASSIGNED_CONTEXT ( ( #123, #376, #411 ) ) REPRESENTATION_CONTEXT ( 'NONE', 'WORKASPACE' ) );
#86 = LINE ( 'NONE', #23, #107 ) ;
#87 = VERTEX_POINT ( 'NONE', #32 ) ;
#88 = CARTESIAN_POINT ( 'NONE',  ( 0.000000000000000000, 15.00000000000000000, 0.000000000000000000 ) ) ;
#89 = ORIENTED_EDGE ( 'NONE', *, *, #316, .T. ) ;
#90 = CARTESIAN_POINT ( 'NONE',  ( 0.000000000000000000, 0.000000000000000000, 0.000000000000000000 ) ) ;
#91 = ORIENTED_EDGE ( 'NONE', *, *, #25, .F. ) ;
#92 = CONICAL_SURFACE ( 'NONE', #162, 6.399999999928240868, 0.7853981633974482790 ) ;
#93 = PRESENTATION_LAYER_ASSIGNMENT (  '', '', ( #63 ) ) ;
#94 = DIRECTION ( 'NONE',  ( 0.000000000000000000, 0.000000000000000000, -1.000000000000000000 ) ) ;
#95 = PLANE ( 'NONE',  #1 ) ;
#96 = MECHANICAL_DESIGN_GEOMETRIC_PRESENTATION_REPRESENTATION (  '', ( #304 ), #221 ) ;
#97 = CARTESIAN_POINT ( 'NONE',  ( 30.00000000000000000, 3.000000000000000000, 15.00000000000000000 ) ) ;
#98 = LINE ( 'NONE', #183, #170 ) ;
#99 = CARTESIAN_POINT ( 'NONE',  ( 0.000000000000000000, 0.000000000000000000, 15.00000000000000000 ) ) ;
#100 = ORIENTED_EDGE ( 'NONE', *, *, #366, .F. ) ;
#101 = DIRECTION ( 'NONE',  ( -0.000000000000000000, -1.000000000000000000, -0.000000000000000000 ) ) ;
#102 = DIRECTION ( 'NONE',  ( 0.000000000000000000, 0.000000000000000000, -1.000000000000000000 ) ) ;
#103 = ORIENTED_EDGE ( 'NONE', *, *, #294, .F. ) ;
#104 = CARTESIAN_POINT ( 'NONE',  ( 3.000000000000000000, 30.00000000000000000, 15.00000000000000000 ) ) ;
#105 = ADVANCED_FACE ( 'NONE', ( #408 ), #92, .F. ) ;
#106 = ORIENTED_EDGE ( 'NONE', *, *, #140, .F. ) ;
#107 = VECTOR ( 'NONE', #174, 1000.000000000000000 ) ;
#108 = DIRECTION ( 'NONE',  ( -1.000000000000000000, -2.710505431190225913E-16, 0.000000000000000000 ) ) ;
#109 = DIRECTION ( 'NONE',  ( -1.000000000000000000, -0.000000000000000000, -0.000000000000000000 ) ) ;
#110 = ORIENTED_EDGE ( 'NONE', *, *, #294, .T. ) ;
#111 = DIRECTION ( 'NONE',  ( -1.000000000000000000, -1.284980352575412699E-16, 0.000000000000000000 ) ) ;
#112 = ORIENTED_EDGE ( 'NONE', *, *, #178, .F. ) ;
#113 = DIRECTION ( 'NONE',  ( 0.000000000000000000, 0.000000000000000000, -1.000000000000000000 ) ) ;
#114 = CIRCLE ( 'NONE', #334, 6.399999999985084287 ) ;
#115 = ORIENTED_EDGE ( 'NONE', *, *, #319, .F. ) ;
#116 = DIRECTION ( 'NONE',  ( -1.000000000000000000, -2.710505431214298990E-16, 0.000000000000000000 ) ) ;
#117 = VERTEX_POINT ( 'NONE', #31 ) ;
#118 = ORIENTED_EDGE ( 'NONE', *, *, #270, .T. ) ;
#119 = DIRECTION ( 'NONE',  ( 1.000000000000000000, 0.000000000000000000, 0.000000000000000000 ) ) ;
#120 =( GEOMETRIC_REPRESENTATION_CONTEXT ( 3 ) GLOBAL_UNCERTAINTY_ASSIGNED_CONTEXT ( ( #82 ) ) GLOBAL_UNIT_ASSIGNED_CONTEXT ( ( #209, #65, #243 ) ) REPRESENTATION_CONTEXT ( 'NONE', 'WORKASPACE' ) );
#121 = ADVANCED_FACE ( 'NONE', ( #246 ), #344, .F. ) ;
#122 = CARTESIAN_POINT ( 'NONE',  ( 0.000000000000000000, 30.00000000000000000, 15.00000000000000000 ) ) ;
#123 =( LENGTH_UNIT ( ) NAMED_UNIT ( * ) SI_UNIT ( .MILLI., .METRE. ) );
#124 =( LENGTH_UNIT ( ) NAMED_UNIT ( * ) SI_UNIT ( .MILLI., .METRE. ) );
#125 = DIRECTION ( 'NONE',  ( 0.000000000000000000, 0.000000000000000000, 1.000000000000000000 ) ) ;
#126 = CARTESIAN_POINT ( 'NONE',  ( 3.000000000000002665, 2.999999999999999112, -15.00000000000000000 ) ) ;
#127 = CIRCLE ( 'NONE', #268, 6.400000000055571014 ) ;
#128 = CARTESIAN_POINT ( 'NONE',  ( 0.000000000000000000, 2.999999999999999112, -15.00000000000000000 ) ) ;
#129 = LINE ( 'NONE', #99, #184 ) ;
#130 = ORIENTED_EDGE ( 'NONE', *, *, #239, .T. ) ;
#131 = FACE_OUTER_BOUND ( 'NONE', #253, .T. ) ;
#132 = VERTEX_POINT ( 'NONE', #27 ) ;
#133 = VECTOR ( 'NONE', #242, 1000.000000000000000 ) ;
#134 = AXIS2_PLACEMENT_3D ( 'NONE', #88, #168, #113 ) ;
#135 = CARTESIAN_POINT ( 'NONE',  ( 30.00000000000000000, 30.00000000000000000, 15.00000000000000000 ) ) ;
#136 = EDGE_LOOP ( 'NONE', ( #308, #293, #103, #359 ) ) ;
#137 = PLANE ( 'NONE',  #62 ) ;
#138 = CARTESIAN_POINT ( 'NONE',  ( 18.40000000001283098, 2.541098841766103398E-15, 6.000769315863913337E-16 ) ) ;
#139 = VERTEX_POINT ( 'NONE', #126 ) ;
#140 = EDGE_CURVE ( 'NONE', #75, #43, #351, .T. ) ;
#141 = CARTESIAN_POINT ( 'NONE',  ( 8.600000000001273293, 2.999999999985902832, 0.000000000000000000 ) ) ;
#142 = PLANE ( 'NONE',  #346 ) ;
#143 = DIRECTION ( 'NONE',  ( -2.371692252312512294E-16, 1.000000000000000000, 0.000000000000000000 ) ) ;
#144 = VERTEX_POINT ( 'NONE', #188 ) ;
#145 = DIRECTION ( 'NONE',  ( -0.7071067811865476838, 0.7071067811865474617, 0.000000000000000000 ) ) ;
#146 = AXIS2_PLACEMENT_3D ( 'NONE', #364, #143, #116 ) ;
#147 = ORIENTED_EDGE ( 'NONE', *, *, #316, .F. ) ;
#148 = PRODUCT_RELATED_PRODUCT_CATEGORY ( 'part', '', ( #315 ) ) ;
#149 = FACE_OUTER_BOUND ( 'NONE', #205, .T. ) ;
#150 = ORIENTED_EDGE ( 'NONE', *, *, #178, .T. ) ;
#151 = DIRECTION ( 'NONE',  ( 0.000000000000000000, 0.000000000000000000, 1.000000000000000000 ) ) ;
#152 = CONICAL_SURFACE ( 'NONE', #327, 6.399999999928240868, 0.7853981633974482790 ) ;
#153 = AXIS2_PLACEMENT_3D ( 'NONE', #296, #179, #373 ) ;
#154 = CARTESIAN_POINT ( 'NONE',  ( 0.000000000000000000, 0.000000000000000000, 15.00000000000000000 ) ) ;
#155 = COLOUR_RGB ( '',0.7529411764705882248, 0.7529411764705882248, 0.7529411764705882248 ) ;
#156 = AXIS2_PLACEMENT_3D ( 'NONE', #35, #69, #72 ) ;
#157 = DIRECTION ( 'NONE',  ( 2.371692252312512294E-16, -1.000000000000000000, -0.000000000000000000 ) ) ;
#158 = EDGE_LOOP ( 'NONE', ( #106, #229, #361, #147 ) ) ;
#159 = CARTESIAN_POINT ( 'NONE',  ( 0.000000000000000000, 0.000000000000000000, -15.00000000000000000 ) ) ;
#160 = CARTESIAN_POINT ( 'NONE',  ( 15.00000000000000355, 1.734723475976807094E-15, 0.000000000000000000 ) ) ;
#161 = ORIENTED_EDGE ( 'NONE', *, *, #340, .F. ) ;
#162 = AXIS2_PLACEMENT_3D ( 'NONE', #216, #349, #94 ) ;
#163 = DIRECTION ( 'NONE',  ( 1.000000000000000000, -0.000000000000000000, 0.000000000000000000 ) ) ;
#164 = VERTEX_POINT ( 'NONE', #138 ) ;
#165 = DIRECTION ( 'NONE',  ( -2.371692252312512294E-16, 1.000000000000000000, 0.000000000000000000 ) ) ;
#166 = VERTEX_POINT ( 'NONE', #42 ) ;
#167 = EDGE_CURVE ( 'NONE', #180, #84, #74, .T. ) ;
#168 = DIRECTION ( 'NONE',  ( -1.000000000000000000, -0.000000000000000000, -0.000000000000000000 ) ) ;
#169 = EDGE_LOOP ( 'NONE', ( #374, #237, #328, #365 ) ) ;
#170 = VECTOR ( 'NONE', #312, 1000.000000000000000 ) ;
#171 = CIRCLE ( 'NONE', #134, 3.399999999999181455 ) ;
#172 = CARTESIAN_POINT ( 'NONE',  ( 0.000000000000000000, 0.000000000000000000, -15.00000000000000000 ) ) ;
#173 = ORIENTED_EDGE ( 'NONE', *, *, #191, .T. ) ;
#174 = DIRECTION ( 'NONE',  ( -0.000000000000000000, 0.000000000000000000, 1.000000000000000000 ) ) ;
#175 = EDGE_LOOP ( 'NONE', ( #115, #55, #402, #289 ) ) ;
#176 = DIRECTION ( 'NONE',  ( -1.000000000000000000, 0.000000000000000000, -0.000000000000000000 ) ) ;
#177 = VERTEX_POINT ( 'NONE', #159 ) ;
#178 = EDGE_CURVE ( 'NONE', #132, #325, #199, .T. ) ;
#179 = DIRECTION ( 'NONE',  ( 1.000000000000000000, -0.000000000000000000, 0.000000000000000000 ) ) ;
#180 = VERTEX_POINT ( 'NONE', #324 ) ;
#181 = SURFACE_STYLE_USAGE ( .BOTH. , #345 ) ;
#182 = CARTESIAN_POINT ( 'NONE',  ( 2.999999999985902832, 15.00000000000000000, 0.000000000000000000 ) ) ;
#183 = CARTESIAN_POINT ( 'NONE',  ( 21.39999999999873381, 2.999999999985906385, 7.837739514541504892E-16 ) ) ;
#184 = VECTOR ( 'NONE', #77, 1000.000000000000000 ) ;
#185 = AXIS2_PLACEMENT_3D ( 'NONE', #302, #230, #262 ) ;
#186 = FILL_AREA_STYLE_COLOUR ( '', #410 ) ;
#187 = DIRECTION ( 'NONE',  ( 1.000000000000000000, -0.000000000000000000, 0.000000000000000000 ) ) ;
#188 = CARTESIAN_POINT ( 'NONE',  ( 21.40000000005557723, 3.000000000042748027, 7.837739514611115951E-16 ) ) ;
#189 = EDGE_CURVE ( 'NONE', #341, #117, #129, .T. ) ;
#190 = CARTESIAN_POINT ( 'NONE',  ( 0.000000000000000000, 0.000000000000000000, 15.00000000000000000 ) ) ;
#191 = EDGE_CURVE ( 'NONE', #325, #139, #295, .T. ) ;
#192 = CARTESIAN_POINT ( 'NONE',  ( 15.00000000000000355, 3.000000000042746251, 0.000000000000000000 ) ) ;
#193 = EDGE_LOOP ( 'NONE', ( #297, #9 ) ) ;
#194 = DIRECTION ( 'NONE',  ( 1.000000000000000000, -0.000000000000000000, 0.000000000000000000 ) ) ;
#195 = ORIENTED_EDGE ( 'NONE', *, *, #366, .T. ) ;
#196 = DIRECTION ( 'NONE',  ( 1.000000000000000000, 1.606225440719266182E-17, 0.000000000000000000 ) ) ;
#197 = ORIENTED_EDGE ( 'NONE', *, *, #25, .T. ) ;
#198 = VECTOR ( 'NONE', #101, 1000.000000000000000 ) ;
#199 = LINE ( 'NONE', #388, #40 ) ;
#200 = EDGE_LOOP ( 'NONE', ( #372, #260, #357, #257 ) ) ;
#201 = ORIENTED_EDGE ( 'NONE', *, *, #37, .T. ) ;
#202 = PRODUCT_DEFINITION_CONTEXT ( 'detailed design', #214, 'design' ) ;
#203 = FACE_OUTER_BOUND ( 'NONE', #158, .T. ) ;
#204 = DIRECTION ( 'NONE',  ( 0.000000000000000000, 0.000000000000000000, -1.000000000000000000 ) ) ;
#205 = EDGE_LOOP ( 'NONE', ( #212, #89, #130, #150, #173, #250 ) ) ;
#206 = UNCERTAINTY_MEASURE_WITH_UNIT (LENGTH_MEASURE( 1.000000000000000082E-05 ), #123, 'distance_accuracy_value', 'NONE');
#207 = DIRECTION ( 'NONE',  ( 1.284980352575412699E-16, -1.000000000000000000, 0.000000000000000000 ) ) ;
#208 = DIRECTION ( 'NONE',  ( 0.000000000000000000, -0.000000000000000000, 1.000000000000000000 ) ) ;
#209 =( LENGTH_UNIT ( ) NAMED_UNIT ( * ) SI_UNIT ( .MILLI., .METRE. ) );
#210 = ORIENTED_EDGE ( 'NONE', *, *, #191, .F. ) ;
#211 = VECTOR ( 'NONE', #187, 1000.000000000000000 ) ;
#212 = ORIENTED_EDGE ( 'NONE', *, *, #398, .T. ) ;
#213 = SURFACE_SIDE_STYLE ('',( #343 ) ) ;
#214 = APPLICATION_CONTEXT ( 'automotive_design' ) ;
#215 = DIRECTION ( 'NONE',  ( -1.000000000000000000, 0.000000000000000000, -0.000000000000000000 ) ) ;
#216 = CARTESIAN_POINT ( 'NONE',  ( 2.999999999929059413, 15.00000000000000000, 0.000000000000000000 ) ) ;
#217 = ADVANCED_BREP_SHAPE_REPRESENTATION ( 'FIXE00E1411-Equerre 30, noir GRIS', ( #20, #277 ), #120 ) ;
#218 = EDGE_CURVE ( 'NONE', #144, #87, #232, .T. ) ;
#219 = CARTESIAN_POINT ( 'NONE',  ( 3.000000000000000000, 30.00000000000000000, -15.00000000000000000 ) ) ;
#220 = VERTEX_POINT ( 'NONE', #292 ) ;
#221 =( GEOMETRIC_REPRESENTATION_CONTEXT ( 3 ) GLOBAL_UNCERTAINTY_ASSIGNED_CONTEXT ( ( #404 ) ) GLOBAL_UNIT_ASSIGNED_CONTEXT ( ( #124, #64, #61 ) ) REPRESENTATION_CONTEXT ( 'NONE', 'WORKASPACE' ) );
#222 = CIRCLE ( 'NONE', #342, 3.399999999999181455 ) ;
#223 = LINE ( 'NONE', #135, #33 ) ;
#224 = ORIENTED_EDGE ( 'NONE', *, *, #319, .T. ) ;
#225 = DIRECTION ( 'NONE',  ( 0.000000000000000000, -1.000000000000000000, 0.000000000000000000 ) ) ;
#226 = AXIS2_PLACEMENT_3D ( 'NONE', #160, #157, #5 ) ;
#227 = LINE ( 'NONE', #141, #348 ) ;
#228 = LINE ( 'NONE', #47, #370 ) ;
#229 = ORIENTED_EDGE ( 'NONE', *, *, #57, .F. ) ;
#230 = DIRECTION ( 'NONE',  ( 2.371692252312512294E-16, -1.000000000000000000, -0.000000000000000000 ) ) ;
#231 = ORIENTED_EDGE ( 'NONE', *, *, #329, .T. ) ;
#232 = CIRCLE ( 'NONE', #378, 6.400000000055571014 ) ;
#233 = VECTOR ( 'NONE', #36, 1000.000000000000114 ) ;
#234 = CARTESIAN_POINT ( 'NONE',  ( 3.000000000000000000, 30.00000000000000000, -15.00000000000000000 ) ) ;
#235 = ORIENTED_EDGE ( 'NONE', *, *, #389, .F. ) ;
#236 = DIRECTION ( 'NONE',  ( 0.000000000000000000, 0.000000000000000000, -1.000000000000000000 ) ) ;
#237 = ORIENTED_EDGE ( 'NONE', *, *, #273, .T. ) ;
#238 = ORIENTED_EDGE ( 'NONE', *, *, #218, .T. ) ;
#239 = EDGE_CURVE ( 'NONE', #177, #132, #256, .T. ) ;
#240 = FACE_OUTER_BOUND ( 'NONE', #393, .T. ) ;
#241 = ADVANCED_FACE ( 'NONE', ( #11, #287 ), #137, .F. ) ;
#242 = DIRECTION ( 'NONE',  ( -0.000000000000000000, 0.000000000000000000, -1.000000000000000000 ) ) ;
#243 =( NAMED_UNIT ( * ) SI_UNIT ( $, .STERADIAN. ) SOLID_ANGLE_UNIT ( ) );
#244 = CARTESIAN_POINT ( 'NONE',  ( 11.59999999998717612, 9.283481101875105936E-16, 0.000000000000000000 ) ) ;
#245 = PRESENTATION_STYLE_ASSIGNMENT (( #181 ) ) ;
#246 = FACE_OUTER_BOUND ( 'NONE', #169, .T. ) ;
#247 = CARTESIAN_POINT ( 'NONE',  ( 0.000000000000000000, 30.00000000000000000, 15.00000000000000000 ) ) ;
#248 = EDGE_CURVE ( 'NONE', #274, #180, #353, .T. ) ;
#249 = CARTESIAN_POINT ( 'NONE',  ( 0.000000000000000000, 2.999999999999999112, 15.00000000000000000 ) ) ;
#250 = ORIENTED_EDGE ( 'NONE', *, *, #34, .T. ) ;
#251 = CONICAL_SURFACE ( 'NONE', #146, 6.399999999998729372, 0.7853981633974481680 ) ;
#252 = DIRECTION ( 'NONE',  ( 1.000000000000000000, -0.000000000000000000, 0.000000000000000000 ) ) ;
#253 = EDGE_LOOP ( 'NONE', ( #110, #391, #100, #112 ) ) ;
#254 = EDGE_CURVE ( 'NONE', #117, #177, #39, .T. ) ;
#255 = CARTESIAN_POINT ( 'NONE',  ( 3.000000000000000000, 30.00000000000000000, 15.00000000000000000 ) ) ;
#256 = LINE ( 'NONE', #13, #258 ) ;
#257 = ORIENTED_EDGE ( 'NONE', *, *, #264, .F. ) ;
#258 = VECTOR ( 'NONE', #320, 1000.000000000000000 ) ;
#259 = LINE ( 'NONE', #172, #8 ) ;
#260 = ORIENTED_EDGE ( 'NONE', *, *, #321, .T. ) ;
#261 = ADVANCED_FACE ( 'NONE', ( #322 ), #2, .F. ) ;
#262 = DIRECTION ( 'NONE',  ( -1.000000000000000000, -2.371692252312513280E-16, 0.000000000000000000 ) ) ;
#263 = VERTEX_POINT ( 'NONE', #354 ) ;
#264 = EDGE_CURVE ( 'NONE', #17, #263, #394, .T. ) ;
#265 = LINE ( 'NONE', #332, #397 ) ;
#266 = ORIENTED_EDGE ( 'NONE', *, *, #68, .F. ) ;
#267 = VECTOR ( 'NONE', #358, 1000.000000000000000 ) ;
#268 = AXIS2_PLACEMENT_3D ( 'NONE', #399, #300, #108 ) ;
#269 = FACE_OUTER_BOUND ( 'NONE', #51, .T. ) ;
#270 = EDGE_CURVE ( 'NONE', #24, #164, #41, .T. ) ;
#271 = ORIENTED_EDGE ( 'NONE', *, *, #375, .T. ) ;
#272 = CARTESIAN_POINT ( 'NONE',  ( 3.000000000000003553, 2.999999999999999556, 15.00000000000000000 ) ) ;
#273 = EDGE_CURVE ( 'NONE', #84, #75, #223, .T. ) ;
#274 = VERTEX_POINT ( 'NONE', #104 ) ;
#275 = APPLICATION_CONTEXT ( 'automotive_design' ) ;
#276 = DIRECTION ( 'NONE',  ( 0.000000000000000000, 0.000000000000000000, -1.000000000000000000 ) ) ;
#277 = AXIS2_PLACEMENT_3D ( 'NONE', #90, #125, #379 ) ;
#278 = LINE ( 'NONE', #128, #211 ) ;
#279 = FACE_OUTER_BOUND ( 'NONE', #200, .T. ) ;
#280 = ADVANCED_FACE ( 'NONE', ( #131 ), #283, .F. ) ;
#281 = DIRECTION ( 'NONE',  ( 1.000000000000000000, 0.000000000000000000, -0.000000000000000000 ) ) ;
#282 = VECTOR ( 'NONE', #371, 1000.000000000000000 ) ;
#283 = PLANE ( 'NONE',  #384 ) ;
#284 = EDGE_CURVE ( 'NONE', #341, #274, #356, .T. ) ;
#285 = PRODUCT_DEFINITION_SHAPE ( 'NONE', 'NONE',  #10 ) ;
#286 = CARTESIAN_POINT ( 'NONE',  ( 3.000000000000003553, 2.999999999999999556, 15.00000000000000000 ) ) ;
#287 = FACE_BOUND ( 'NONE', #193, .T. ) ;
#288 = CLOSED_SHELL ( 'NONE', ( #59, #261, #352, #363, #12, #71, #280, #105, #121, #241, #331, #381 ) ) ;
#289 = ORIENTED_EDGE ( 'NONE', *, *, #34, .F. ) ;
#290 = CIRCLE ( 'NONE', #185, 3.400000000012826984 ) ;
#291 = MECHANICAL_DESIGN_GEOMETRIC_PRESENTATION_REPRESENTATION (  '', ( #63 ), #85 ) ;
#292 = CARTESIAN_POINT ( 'NONE',  ( 2.999999999985902832, 15.00000000000000000, 6.399999999985084287 ) ) ;
#293 = ORIENTED_EDGE ( 'NONE', *, *, #189, .F. ) ;
#294 = EDGE_CURVE ( 'NONE', #132, #341, #4, .T. ) ;
#295 = LINE ( 'NONE', #219, #198 ) ;
#296 = CARTESIAN_POINT ( 'NONE',  ( 0.000000000000000000, 0.000000000000000000, 15.00000000000000000 ) ) ;
#297 = ORIENTED_EDGE ( 'NONE', *, *, #375, .F. ) ;
#298 = LINE ( 'NONE', #272, #282 ) ;
#299 = DIRECTION ( 'NONE',  ( 0.000000000000000000, 1.000000000000000000, 0.000000000000000000 ) ) ;
#300 = DIRECTION ( 'NONE',  ( -2.371692252312512294E-16, 1.000000000000000000, 0.000000000000000000 ) ) ;
#301 = ORIENTED_EDGE ( 'NONE', *, *, #68, .T. ) ;
#302 = CARTESIAN_POINT ( 'NONE',  ( 15.00000000000000355, 1.734723475976807094E-15, 0.000000000000000000 ) ) ;
#303 = ORIENTED_EDGE ( 'NONE', *, *, #273, .F. ) ;
#304 = STYLED_ITEM ( 'NONE', ( #245 ), #20 ) ;
#305 = VECTOR ( 'NONE', #44, 1000.000000000000000 ) ;
#306 = EDGE_CURVE ( 'NONE', #84, #73, #228, .T. ) ;
#307 = FACE_BOUND ( 'NONE', #396, .T. ) ;
#308 = ORIENTED_EDGE ( 'NONE', *, *, #254, .F. ) ;
#309 = SHAPE_DEFINITION_REPRESENTATION ( #285, #217 ) ;
#310 = CARTESIAN_POINT ( 'NONE',  ( 2.999999999985902832, 15.00000000000000000, 0.000000000000000000 ) ) ;
#311 = CARTESIAN_POINT ( 'NONE',  ( 30.00000000000000000, 0.000000000000000000, 15.00000000000000000 ) ) ;
#312 = DIRECTION ( 'NONE',  ( 0.7071067811865472397, 0.7071067811865479058, 8.659560562354931626E-17 ) ) ;
#313 = PRODUCT_CONTEXT ( 'NONE', #275, 'mechanical' ) ;
#314 = DIRECTION ( 'NONE',  ( 0.000000000000000000, 0.000000000000000000, -1.000000000000000000 ) ) ;
#315 = PRODUCT ( 'FIXE00E1411-Equerre 30, noir GRIS', 'FIXE00E1411-Equerre 30, noir GRIS', '', ( #313 ) ) ;
#316 = EDGE_CURVE ( 'NONE', #43, #177, #259, .T. ) ;
#317 = APPLICATION_PROTOCOL_DEFINITION ( 'draft international standard', 'automotive_design', 1998, #214 ) ;
#318 = FILL_AREA_STYLE_COLOUR ( '', #155 ) ;
#319 = EDGE_CURVE ( 'NONE', #180, #139, #298, .T. ) ;
#320 = DIRECTION ( 'NONE',  ( 0.000000000000000000, 1.000000000000000000, 0.000000000000000000 ) ) ;
#321 = EDGE_CURVE ( 'NONE', #166, #220, #18, .T. ) ;
#322 = FACE_OUTER_BOUND ( 'NONE', #46, .T. ) ;
#323 = ORIENTED_EDGE ( 'NONE', *, *, #248, .F. ) ;
#324 = CARTESIAN_POINT ( 'NONE',  ( 3.000000000000002665, 2.999999999999999112, 15.00000000000000000 ) ) ;
#325 = VERTEX_POINT ( 'NONE', #234 ) ;
#326 = CARTESIAN_POINT ( 'NONE',  ( 2.999999999929059413, 15.00000000000000000, -6.399999999928240868 ) ) ;
#327 = AXIS2_PLACEMENT_3D ( 'NONE', #416, #119, #383 ) ;
#328 = ORIENTED_EDGE ( 'NONE', *, *, #140, .T. ) ;
#329 = EDGE_CURVE ( 'NONE', #24, #87, #227, .T. ) ;
#330 = CARTESIAN_POINT ( 'NONE',  ( 0.000000000000000000, 30.00000000000000000, 15.00000000000000000 ) ) ;
#331 = ADVANCED_FACE ( 'NONE', ( #269, #401 ), #50, .F. ) ;
#332 = CARTESIAN_POINT ( 'NONE',  ( 30.00000000000000000, 30.00000000000000000, -15.00000000000000000 ) ) ;
#333 = CARTESIAN_POINT ( 'NONE',  ( 0.000000000000000000, 0.000000000000000000, 15.00000000000000000 ) ) ;
#334 = AXIS2_PLACEMENT_3D ( 'NONE', #182, #29, #66 ) ;
#335 = VECTOR ( 'NONE', #54, 1000.000000000000114 ) ;
#336 = DIRECTION ( 'NONE',  ( -1.000000000000000000, 0.000000000000000000, -0.000000000000000000 ) ) ;
#337 = ORIENTED_EDGE ( 'NONE', *, *, #340, .T. ) ;
#338 = CARTESIAN_POINT ( 'NONE',  ( 3.000000000000000000, 30.00000000000000000, 15.00000000000000000 ) ) ;
#339 = CARTESIAN_POINT ( 'NONE',  ( 0.000000000000000000, 15.00000000000000000, -3.399999999999181455 ) ) ;
#340 = EDGE_CURVE ( 'NONE', #164, #24, #290, .T. ) ;
#341 = VERTEX_POINT ( 'NONE', #367 ) ;
#342 = AXIS2_PLACEMENT_3D ( 'NONE', #78, #109, #236 ) ;
#343 = SURFACE_STYLE_FILL_AREA ( #347 ) ;
#344 = PLANE ( 'NONE',  #28 ) ;
#345 = SURFACE_SIDE_STYLE ('',( #412 ) ) ;
#346 = AXIS2_PLACEMENT_3D ( 'NONE', #333, #299, #208 ) ;
#347 = FILL_AREA_STYLE ('',( #186 ) ) ;
#348 = VECTOR ( 'NONE', #145, 1000.000000000000000 ) ;
#349 = DIRECTION ( 'NONE',  ( 1.000000000000000000, 0.000000000000000000, 0.000000000000000000 ) ) ;
#350 = APPLICATION_PROTOCOL_DEFINITION ( 'draft international standard', 'automotive_design', 1998, #275 ) ;
#351 = LINE ( 'NONE', #385, #133 ) ;
#352 = ADVANCED_FACE ( 'NONE', ( #405, #307 ), #362, .F. ) ;
#353 = LINE ( 'NONE', #255, #267 ) ;
#354 = CARTESIAN_POINT ( 'NONE',  ( 2.999999999985902832, 15.00000000000000000, -6.399999999985084287 ) ) ;
#355 = AXIS2_PLACEMENT_3D ( 'NONE', #338, #111, #207 ) ;
#356 = LINE ( 'NONE', #330, #56 ) ;
#357 = ORIENTED_EDGE ( 'NONE', *, *, #37, .F. ) ;
#358 = DIRECTION ( 'NONE',  ( -0.000000000000000000, -1.000000000000000000, -0.000000000000000000 ) ) ;
#359 = ORIENTED_EDGE ( 'NONE', *, *, #239, .F. ) ;
#360 = DIRECTION ( 'NONE',  ( 0.000000000000000000, -0.000000000000000000, -1.000000000000000000 ) ) ;
#361 = ORIENTED_EDGE ( 'NONE', *, *, #254, .T. ) ;
#362 = PLANE ( 'NONE',  #153 ) ;
#363 = ADVANCED_FACE ( 'NONE', ( #149 ), #83, .T. ) ;
#364 = CARTESIAN_POINT ( 'NONE',  ( 15.00000000000000355, 2.999999999985904608, 0.000000000000000000 ) ) ;
#365 = ORIENTED_EDGE ( 'NONE', *, *, #398, .F. ) ;
#366 = EDGE_CURVE ( 'NONE', #325, #274, #86, .T. ) ;
#367 = CARTESIAN_POINT ( 'NONE',  ( 0.000000000000000000, 30.00000000000000000, 15.00000000000000000 ) ) ;
#368 = FACE_BOUND ( 'NONE', #48, .T. ) ;
#369 = VECTOR ( 'NONE', #252, 1000.000000000000000 ) ;
#370 = VECTOR ( 'NONE', #21, 1000.000000000000000 ) ;
#371 = DIRECTION ( 'NONE',  ( 0.000000000000000000, -0.000000000000000000, -1.000000000000000000 ) ) ;
#372 = ORIENTED_EDGE ( 'NONE', *, *, #413, .T. ) ;
#373 = DIRECTION ( 'NONE',  ( 0.000000000000000000, 0.000000000000000000, -1.000000000000000000 ) ) ;
#374 = ORIENTED_EDGE ( 'NONE', *, *, #306, .F. ) ;
#375 = EDGE_CURVE ( 'NONE', #87, #144, #127, .T. ) ;
#376 =( NAMED_UNIT ( * ) PLANE_ANGLE_UNIT ( ) SI_UNIT ( $, .RADIAN. ) );
#377 = ORIENTED_EDGE ( 'NONE', *, *, #413, .F. ) ;
#378 = AXIS2_PLACEMENT_3D ( 'NONE', #192, #165, #390 ) ;
#379 = DIRECTION ( 'NONE',  ( 1.000000000000000000, 0.000000000000000000, 0.000000000000000000 ) ) ;
#380 = CARTESIAN_POINT ( 'NONE',  ( 30.00000000000000000, 0.000000000000000000, 15.00000000000000000 ) ) ;
#381 = ADVANCED_FACE ( 'NONE', ( #80 ), #251, .F. ) ;
#382 = DIRECTION ( 'NONE',  ( -1.000000000000000000, 0.000000000000000000, 0.000000000000000000 ) ) ;
#383 = DIRECTION ( 'NONE',  ( 0.000000000000000000, 0.000000000000000000, -1.000000000000000000 ) ) ;
#384 = AXIS2_PLACEMENT_3D ( 'NONE', #7, #225, #360 ) ;
#385 = CARTESIAN_POINT ( 'NONE',  ( 30.00000000000000000, 0.000000000000000000, 15.00000000000000000 ) ) ;
#386 = ORIENTED_EDGE ( 'NONE', *, *, #270, .F. ) ;
#387 = AXIS2_PLACEMENT_3D ( 'NONE', #310, #415, #314 ) ;
#388 = CARTESIAN_POINT ( 'NONE',  ( 0.000000000000000000, 30.00000000000000000, -15.00000000000000000 ) ) ;
#389 = EDGE_CURVE ( 'NONE', #166, #17, #222, .T. ) ;
#390 = DIRECTION ( 'NONE',  ( -1.000000000000000000, -2.710505431190225913E-16, 0.000000000000000000 ) ) ;
#391 = ORIENTED_EDGE ( 'NONE', *, *, #284, .T. ) ;
#392 = DIRECTION ( 'NONE',  ( -0.000000000000000000, -1.000000000000000000, -0.000000000000000000 ) ) ;
#393 = EDGE_LOOP ( 'NONE', ( #407, #303, #406, #323, #15, #38 ) ) ;
#394 = LINE ( 'NONE', #326, #233 ) ;
#395 = PRESENTATION_LAYER_ASSIGNMENT (  '', '', ( #304 ) ) ;
#396 = EDGE_LOOP ( 'NONE', ( #377, #235 ) ) ;
#397 = VECTOR ( 'NONE', #52, 1000.000000000000000 ) ;
#398 = EDGE_CURVE ( 'NONE', #73, #43, #265, .T. ) ;
#399 = CARTESIAN_POINT ( 'NONE',  ( 15.00000000000000355, 3.000000000042746251, 0.000000000000000000 ) ) ;
#400 = EDGE_LOOP ( 'NONE', ( #79, #70, #403, #266 ) ) ;
#401 = FACE_BOUND ( 'NONE', #81, .T. ) ;
#402 = ORIENTED_EDGE ( 'NONE', *, *, #306, .T. ) ;
#403 = ORIENTED_EDGE ( 'NONE', *, *, #264, .T. ) ;
#404 = UNCERTAINTY_MEASURE_WITH_UNIT (LENGTH_MEASURE( 1.000000000000000082E-05 ), #124, 'distance_accuracy_value', 'NONE');
#405 = FACE_OUTER_BOUND ( 'NONE', #136, .T. ) ;
#406 = ORIENTED_EDGE ( 'NONE', *, *, #167, .F. ) ;
#407 = ORIENTED_EDGE ( 'NONE', *, *, #57, .T. ) ;
#408 = FACE_OUTER_BOUND ( 'NONE', #400, .T. ) ;
#409 = VECTOR ( 'NONE', #281, 1000.000000000000000 ) ;
#410 = COLOUR_RGB ( '',0.7529411764705882248, 0.7529411764705882248, 0.7529411764705882248 ) ;
#411 =( NAMED_UNIT ( * ) SI_UNIT ( $, .STERADIAN. ) SOLID_ANGLE_UNIT ( ) );
#412 = SURFACE_STYLE_FILL_AREA ( #58 ) ;
#413 = EDGE_CURVE ( 'NONE', #17, #166, #171, .T. ) ;
#414 = SURFACE_STYLE_USAGE ( .BOTH. , #213 ) ;
#415 = DIRECTION ( 'NONE',  ( -1.000000000000000000, -0.000000000000000000, -0.000000000000000000 ) ) ;
#416 = CARTESIAN_POINT ( 'NONE',  ( 2.999999999929059413, 15.00000000000000000, 0.000000000000000000 ) ) ;
ENDSEC;
END-ISO-10303-21;
