ISO-10303-21;
HEADER;
FILE_DESCRIPTION(('STEP AP203'),'1');
FILE_NAME('FIXE00E1417.stp','2023-10-02T13:57:17',(' '),(' '),'Spatial InterOp 3D',' ',' ');
FILE_SCHEMA(('CONFIG_CONTROL_DESIGN'));
ENDSEC;
DATA;
#1=DESIGN_CONTEXT('',#69,'design');
#2=APPLICATION_PROTOCOL_DEFINITION('INTERNATIONAL STANDARD','config_control_design',1994,#69);
#3=PRODUCT_CATEGORY_RELATIONSHIP('NONE','NONE',#70,#71);
#4=DATE_AND_TIME(#72,#73);
#5=DATE_TIME_ROLE('creation_date');
#6=DATE_TIME_ROLE('classification_date');
#7=PERSON_AND_ORGANIZATION_ROLE('creator');
#8=PERSON_AND_ORGANIZATION_ROLE('design_supplier');
#9=PERSON_AND_ORGANIZATION_ROLE('classification_officer');
#10=PERSON_AND_ORGANIZATION_ROLE('design_owner');
#11=APPROVAL_PERSON_ORGANIZATION(#74,#75,#76);
#12=APPROVAL_DATE_TIME(#4,#75);
#13=CC_DESIGN_APPROVAL(#75,(#77,#78,#79));
#14=CC_DESIGN_DATE_AND_TIME_ASSIGNMENT(#4,#5,(#79));
#15=CC_DESIGN_DATE_AND_TIME_ASSIGNMENT(#4,#6,(#77));
#16=CC_DESIGN_PERSON_AND_ORGANIZATION_ASSIGNMENT(#74,#10,(#80));
#17=CC_DESIGN_PERSON_AND_ORGANIZATION_ASSIGNMENT(#74,#7,(#79));
#18=CC_DESIGN_PERSON_AND_ORGANIZATION_ASSIGNMENT(#74,#7,(#78));
#19=CC_DESIGN_PERSON_AND_ORGANIZATION_ASSIGNMENT(#74,#8,(#78));
#20=CC_DESIGN_SECURITY_CLASSIFICATION(#77,(#78));
#21=CC_DESIGN_PERSON_AND_ORGANIZATION_ASSIGNMENT(#74,#9,(#77));
#22=SHAPE_DEFINITION_REPRESENTATION(#81,#82);
#23= (GEOMETRIC_REPRESENTATION_CONTEXT(3)GLOBAL_UNCERTAINTY_ASSIGNED_CONTEXT((#85))GLOBAL_UNIT_ASSIGNED_CONTEXT((#87,#88,#89))REPRESENTATION_CONTEXT('NONE','WORKSPACE'));
#24=PROPERTY_DEFINITION_REPRESENTATION(#91,#92);
#25=GENERAL_PROPERTY_ASSOCIATION('','',#93,#91);
#26=PROPERTY_DEFINITION_REPRESENTATION(#94,#95);
#27=GENERAL_PROPERTY_ASSOCIATION('','',#96,#94);
#28=PROPERTY_DEFINITION_REPRESENTATION(#97,#98);
#29=GENERAL_PROPERTY_ASSOCIATION('','',#99,#97);
#30=PROPERTY_DEFINITION_REPRESENTATION(#100,#101);
#31=GENERAL_PROPERTY_ASSOCIATION('','',#102,#100);
#32=PROPERTY_DEFINITION_REPRESENTATION(#103,#104);
#33=GENERAL_PROPERTY_ASSOCIATION('','',#105,#103);
#34=PROPERTY_DEFINITION_REPRESENTATION(#106,#107);
#35=GENERAL_PROPERTY_ASSOCIATION('','',#108,#106);
#36=PROPERTY_DEFINITION_REPRESENTATION(#109,#110);
#37=GENERAL_PROPERTY_ASSOCIATION('','',#111,#109);
#38=PROPERTY_DEFINITION_REPRESENTATION(#112,#113);
#39=GENERAL_PROPERTY_ASSOCIATION('','',#114,#112);
#40=PROPERTY_DEFINITION_REPRESENTATION(#115,#116);
#41=GENERAL_PROPERTY_ASSOCIATION('','',#117,#115);
#42=PROPERTY_DEFINITION_REPRESENTATION(#118,#119);
#43=GENERAL_PROPERTY_ASSOCIATION('','',#120,#118);
#44=PROPERTY_DEFINITION_REPRESENTATION(#121,#122);
#45=GENERAL_PROPERTY_ASSOCIATION('','',#123,#121);
#46=PROPERTY_DEFINITION_REPRESENTATION(#124,#125);
#47=GENERAL_PROPERTY_ASSOCIATION('','',#126,#124);
#48=PROPERTY_DEFINITION_REPRESENTATION(#127,#128);
#49=GENERAL_PROPERTY_ASSOCIATION('','',#129,#127);
#50=PROPERTY_DEFINITION_REPRESENTATION(#130,#131);
#51=GENERAL_PROPERTY_ASSOCIATION('','',#132,#130);
#52=PROPERTY_DEFINITION_REPRESENTATION(#133,#134);
#53=GENERAL_PROPERTY_ASSOCIATION('','',#135,#133);
#54=PROPERTY_DEFINITION_REPRESENTATION(#136,#137);
#55=GENERAL_PROPERTY_ASSOCIATION('','',#138,#136);
#56=PROPERTY_DEFINITION_REPRESENTATION(#139,#140);
#57=GENERAL_PROPERTY_ASSOCIATION('','',#141,#139);
#58=PROPERTY_DEFINITION_REPRESENTATION(#142,#143);
#59=GENERAL_PROPERTY_ASSOCIATION('','',#144,#142);
#60=PROPERTY_DEFINITION_REPRESENTATION(#145,#146);
#61=GENERAL_PROPERTY_ASSOCIATION('','',#147,#145);
#62=PROPERTY_DEFINITION_REPRESENTATION(#148,#149);
#63=GENERAL_PROPERTY_ASSOCIATION('','',#150,#148);
#64=PROPERTY_DEFINITION_REPRESENTATION(#151,#152);
#65=GENERAL_PROPERTY_ASSOCIATION('','',#153,#151);
#69=APPLICATION_CONTEXT('CONFIGURATION CONTROLLED 3D DESIGNS OF MECHANICAL PARTS AND ASSEMBLIES');
#70=PRODUCT_CATEGORY('part','NONE');
#71=PRODUCT_RELATED_PRODUCT_CATEGORY('detail',' ',(#80));
#72=CALENDAR_DATE(2023,2,9);
#73=LOCAL_TIME(15,57,17.0,#154);
#74=PERSON_AND_ORGANIZATION(#155,#156);
#75=APPROVAL(#157,'SOLID MODEL');
#76=APPROVAL_ROLE('APPROVED');
#77=SECURITY_CLASSIFICATION('','',#158);
#78=PRODUCT_DEFINITION_FORMATION_WITH_SPECIFIED_SOURCE('A','NONE',#80,.NOT_KNOWN.);
#79=PRODUCT_DEFINITION('','NONE',#78,#1);
#80=PRODUCT('Equerre 40 - Noire','%#@![CATALOGUE - PREFIXE=FIXE][CATALOGUE - GAMME=00][CATALOGUE - LETTRE=E][CATALOGUE-ID=1417]','Equerre 40 - Noire',(#159));
#81=PRODUCT_DEFINITION_SHAPE('NONE','NONE',#79);
#82=ADVANCED_BREP_SHAPE_REPRESENTATION('1',(#160,#161),#23);
#85=UNCERTAINTY_MEASURE_WITH_UNIT(LENGTH_MEASURE(0.001),#87,'','');
#87= (CONVERSION_BASED_UNIT('MILLIMETRE',#164)LENGTH_UNIT()NAMED_UNIT(#167));
#88= (NAMED_UNIT(#169)PLANE_ANGLE_UNIT()SI_UNIT($,.RADIAN.));
#89= (NAMED_UNIT(#169)SOLID_ANGLE_UNIT()SI_UNIT($,.STERADIAN.));
#91=PROPERTY_DEFINITION('PdmObjectId','',#79);
#92=REPRESENTATION('',(#175),#23);
#93=GENERAL_PROPERTY('','37_b0020fe2-6cfe-49e7-9c3e-d3634276be93&8_6664_0_60','');
#94=PROPERTY_DEFINITION('LigneProfil','',#79);
#95=REPRESENTATION('',(#176),#23);
#96=GENERAL_PROPERTY('','8-40','');
#97=PROPERTY_DEFINITION('Type de production ELCOM','',#79);
#98=REPRESENTATION('',(#177),#23);
#99=GENERAL_PROPERTY('','pi\X2\00E8\X0\ce du stock','');
#100=PROPERTY_DEFINITION('ETAT_SURFACE','',#79);
#101=REPRESENTATION('',(#178),#23);
#102=GENERAL_PROPERTY('','-','');
#103=PROPERTY_DEFINITION('DESIGNATION_ENG','',#79);
#104=REPRESENTATION('',(#179),#23);
#105=GENERAL_PROPERTY('','-','');
#106=PROPERTY_DEFINITION('CODE_ELCOM','',#79);
#107=REPRESENTATION('',(#180),#23);
#108=GENERAL_PROPERTY('','-','');
#109=PROPERTY_DEFINITION('TRAITEMENT)','',#79);
#110=REPRESENTATION('',(#181),#23);
#111=GENERAL_PROPERTY('','Non sp\X2\00E9\X0\cifi\X2\00E9\X0\','');
#112=PROPERTY_DEFINITION('TOLERANCES_GENERALES','',#79);
#113=REPRESENTATION('',(#182),#23);
#114=GENERAL_PROPERTY('','\X2\00E0\X0\ d\X2\00E9\X0\finir','');
#115=PROPERTY_DEFINITION('TOLERANCES_BORDS','',#79);
#116=REPRESENTATION('',(#183),#23);
#117=GENERAL_PROPERTY('','ISO 13715','');
#118=PROPERTY_DEFINITION('CODE_TRANSEPT','',#79);
#119=REPRESENTATION('',(#184),#23);
#120=GENERAL_PROPERTY('','W840','');
#121=PROPERTY_DEFINITION('FOURNISSEUR2','',#79);
#122=REPRESENTATION('',(#185),#23);
#123=GENERAL_PROPERTY('','\X2\00E0\X0\ d\X2\00E9\X0\finir','');
#124=PROPERTY_DEFINITION('FOURNISSEUR','',#79);
#125=REPRESENTATION('',(#186),#23);
#126=GENERAL_PROPERTY('','\X2\00E0\X0\ d\X2\00E9\X0\finir','');
#127=PROPERTY_DEFINITION('CATALOGUE - LETTRE','',#79);
#128=REPRESENTATION('',(#187),#23);
#129=GENERAL_PROPERTY('','E','');
#130=PROPERTY_DEFINITION('CATALOGUE - PREFIXE','',#79);
#131=REPRESENTATION('',(#188),#23);
#132=GENERAL_PROPERTY('','FIXE','');
#133=PROPERTY_DEFINITION('CATALOGUE - GAMME','',#79);
#134=REPRESENTATION('',(#189),#23);
#135=GENERAL_PROPERTY('','00','');
#136=PROPERTY_DEFINITION('CATALOGUE-ID','',#79);
#137=REPRESENTATION('',(#190),#23);
#138=GENERAL_PROPERTY('','1417','');
#139=PROPERTY_DEFINITION('D\X2\00E9\X0\signation du mat\X2\00E9\X0\riau','',#79);
#140=REPRESENTATION('',(#191),#23);
#141=GENERAL_PROPERTY('','Steel','');
#142=PROPERTY_DEFINITION('Nom du mat\X2\00E9\X0\riau','',#79);
#143=REPRESENTATION('',(#192),#23);
#144=GENERAL_PROPERTY('','Steel','');
#145=PROPERTY_DEFINITION('Manufacturer','',#79);
#146=REPRESENTATION('',(#193),#23);
#147=GENERAL_PROPERTY('','HELLOMOOV','');
#148=PROPERTY_DEFINITION('CreationDate','',#79);
#149=REPRESENTATION('',(#194),#23);
#150=GENERAL_PROPERTY('','13/05/2022 11:56:52','');
#151=PROPERTY_DEFINITION('Minor Revision','',#79);
#152=REPRESENTATION('',(#195),#23);
#153=GENERAL_PROPERTY('','19','');
#154=COORDINATED_UNIVERSAL_TIME_OFFSET(1,0,.AHEAD.);
#155=PERSON('','UNSPECIFIED',$,$,$,$);
#156=ORGANIZATION('UNSPECIFIED','UNSPECIFIED','UNSPECIFIED');
#157=APPROVAL_STATUS('approved');
#158=SECURITY_CLASSIFICATION_LEVEL('unclassified');
#159=MECHANICAL_CONTEXT('',#69,'mechanical');
#160=MANIFOLD_SOLID_BREP('1',#196);
#161=AXIS2_PLACEMENT_3D('',#197,#198,#199);
#164=LENGTH_MEASURE_WITH_UNIT(LENGTH_MEASURE(1.0),#200);
#167=DIMENSIONAL_EXPONENTS(1.0,0.0,0.0,0.0,0.0,0.0,0.0);
#169=DIMENSIONAL_EXPONENTS(0.0,0.0,0.0,0.0,0.0,0.0,0.0);
#175=DESCRIPTIVE_REPRESENTATION_ITEM('','37_b0020fe2-6cfe-49e7-9c3e-d3634276be93&8_6664_0_60');
#176=DESCRIPTIVE_REPRESENTATION_ITEM('','8-40');
#177=DESCRIPTIVE_REPRESENTATION_ITEM('','pi\X2\00E8\X0\ce du stock');
#178=DESCRIPTIVE_REPRESENTATION_ITEM('','-');
#179=DESCRIPTIVE_REPRESENTATION_ITEM('','-');
#180=DESCRIPTIVE_REPRESENTATION_ITEM('','-');
#181=DESCRIPTIVE_REPRESENTATION_ITEM('','Non sp\X2\00E9\X0\cifi\X2\00E9\X0\');
#182=DESCRIPTIVE_REPRESENTATION_ITEM('','\X2\00E0\X0\ d\X2\00E9\X0\finir');
#183=DESCRIPTIVE_REPRESENTATION_ITEM('','ISO 13715');
#184=DESCRIPTIVE_REPRESENTATION_ITEM('','W840');
#185=DESCRIPTIVE_REPRESENTATION_ITEM('','\X2\00E0\X0\ d\X2\00E9\X0\finir');
#186=DESCRIPTIVE_REPRESENTATION_ITEM('','\X2\00E0\X0\ d\X2\00E9\X0\finir');
#187=DESCRIPTIVE_REPRESENTATION_ITEM('','E');
#188=DESCRIPTIVE_REPRESENTATION_ITEM('','FIXE');
#189=DESCRIPTIVE_REPRESENTATION_ITEM('','00');
#190=DESCRIPTIVE_REPRESENTATION_ITEM('','1417');
#191=DESCRIPTIVE_REPRESENTATION_ITEM('','Steel');
#192=DESCRIPTIVE_REPRESENTATION_ITEM('','Steel');
#193=DESCRIPTIVE_REPRESENTATION_ITEM('','HELLOMOOV');
#194=DESCRIPTIVE_REPRESENTATION_ITEM('','13/05/2022 11:56:52');
#195=DESCRIPTIVE_REPRESENTATION_ITEM('','19');
#196=CLOSED_SHELL('',(#201,#202,#203,#204,#205,#206,#207,#208,#209,#210,#211,#212,#213));
#197=CARTESIAN_POINT('',(0.0,0.0,0.0));
#198=DIRECTION('',(0.0,0.0,1.0));
#199=DIRECTION('',(1.0,0.0,0.0));
#200= (NAMED_UNIT(#167)LENGTH_UNIT()SI_UNIT(.MILLI.,.METRE.));
#201=ADVANCED_FACE('',(#215,#216),#217,.T.);
#202=ADVANCED_FACE('',(#218),#219,.T.);
#203=ADVANCED_FACE('',(#220),#221,.T.);
#204=ADVANCED_FACE('',(#222,#223),#224,.T.);
#205=ADVANCED_FACE('',(#225),#226,.T.);
#206=ADVANCED_FACE('',(#227,#228),#229,.F.);
#207=ADVANCED_FACE('',(#230,#231),#232,.F.);
#208=ADVANCED_FACE('',(#233,#234),#235,.F.);
#209=ADVANCED_FACE('',(#236),#237,.F.);
#210=ADVANCED_FACE('',(#238,#239),#240,.T.);
#211=ADVANCED_FACE('',(#241,#242),#243,.T.);
#212=ADVANCED_FACE('',(#244),#245,.F.);
#213=ADVANCED_FACE('',(#246,#247),#248,.F.);
#215=FACE_BOUND('',#249,.T.);
#216=FACE_OUTER_BOUND('',#250,.T.);
#217=PLANE('',#251);
#218=FACE_OUTER_BOUND('',#252,.T.);
#219=PLANE('',#253);
#220=FACE_OUTER_BOUND('',#254,.T.);
#221=PLANE('',#255);
#222=FACE_BOUND('',#256,.T.);
#223=FACE_OUTER_BOUND('',#257,.T.);
#224=PLANE('',#258);
#225=FACE_OUTER_BOUND('',#259,.T.);
#226=PLANE('',#260);
#227=FACE_OUTER_BOUND('',#261,.T.);
#228=FACE_OUTER_BOUND('',#262,.T.);
#229=CYLINDRICAL_SURFACE('',#263,4.2);
#230=FACE_BOUND('',#264,.T.);
#231=FACE_OUTER_BOUND('',#265,.T.);
#232=CONICAL_SURFACE('',#266,4.2,0.785398163397448);
#233=FACE_BOUND('',#267,.T.);
#234=FACE_OUTER_BOUND('',#268,.T.);
#235=CONICAL_SURFACE('',#269,4.2,0.785398163397448);
#236=FACE_OUTER_BOUND('',#270,.T.);
#237=PLANE('',#271);
#238=FACE_BOUND('',#272,.T.);
#239=FACE_OUTER_BOUND('',#273,.T.);
#240=PLANE('',#274);
#241=FACE_BOUND('',#275,.T.);
#242=FACE_OUTER_BOUND('',#276,.T.);
#243=PLANE('',#277);
#244=FACE_OUTER_BOUND('',#278,.T.);
#245=CYLINDRICAL_SURFACE('',#279,2.5);
#246=FACE_OUTER_BOUND('',#280,.T.);
#247=FACE_OUTER_BOUND('',#281,.T.);
#248=CYLINDRICAL_SURFACE('',#282,4.2);
#249=EDGE_LOOP('',(#283));
#250=EDGE_LOOP('',(#284,#285,#286,#287));
#251=AXIS2_PLACEMENT_3D('',#288,#289,#290);
#252=EDGE_LOOP('',(#291,#292,#293,#294,#295,#296,#297));
#253=AXIS2_PLACEMENT_3D('',#298,#299,#300);
#254=EDGE_LOOP('',(#301,#302,#303,#304));
#255=AXIS2_PLACEMENT_3D('',#305,#306,#307);
#256=EDGE_LOOP('',(#308));
#257=EDGE_LOOP('',(#309,#310,#311,#312));
#258=AXIS2_PLACEMENT_3D('',#313,#314,#315);
#259=EDGE_LOOP('',(#316,#317,#318,#319));
#260=AXIS2_PLACEMENT_3D('',#320,#321,#322);
#261=EDGE_LOOP('',(#323));
#262=EDGE_LOOP('',(#324));
#263=AXIS2_PLACEMENT_3D('',#325,#326,#327);
#264=EDGE_LOOP('',(#328));
#265=EDGE_LOOP('',(#329));
#266=AXIS2_PLACEMENT_3D('',#330,#331,#332);
#267=EDGE_LOOP('',(#333));
#268=EDGE_LOOP('',(#334));
#269=AXIS2_PLACEMENT_3D('',#335,#336,#337);
#270=EDGE_LOOP('',(#338,#339,#340,#341,#342,#343,#344));
#271=AXIS2_PLACEMENT_3D('',#345,#346,#347);
#272=EDGE_LOOP('',(#348));
#273=EDGE_LOOP('',(#349,#350,#351,#352));
#274=AXIS2_PLACEMENT_3D('',#353,#354,#355);
#275=EDGE_LOOP('',(#356));
#276=EDGE_LOOP('',(#357,#358,#359,#360));
#277=AXIS2_PLACEMENT_3D('',#361,#362,#363);
#278=EDGE_LOOP('',(#364,#365,#366,#367));
#279=AXIS2_PLACEMENT_3D('',#368,#369,#370);
#280=EDGE_LOOP('',(#371));
#281=EDGE_LOOP('',(#372));
#282=AXIS2_PLACEMENT_3D('',#373,#374,#375);
#283=ORIENTED_EDGE('',*,*,#376,.F.);
#284=ORIENTED_EDGE('',*,*,#377,.F.);
#285=ORIENTED_EDGE('',*,*,#378,.F.);
#286=ORIENTED_EDGE('',*,*,#379,.T.);
#287=ORIENTED_EDGE('',*,*,#380,.T.);
#288=CARTESIAN_POINT('',(0.0,20.0,-20.0));
#289=DIRECTION('',(-1.0,-1.83690953073356E-16,0.0));
#290=DIRECTION('',(1.83690953073356E-16,-1.0,0.0));
#291=ORIENTED_EDGE('',*,*,#381,.F.);
#292=ORIENTED_EDGE('',*,*,#379,.F.);
#293=ORIENTED_EDGE('',*,*,#382,.F.);
#294=ORIENTED_EDGE('',*,*,#383,.F.);
#295=ORIENTED_EDGE('',*,*,#384,.T.);
#296=ORIENTED_EDGE('',*,*,#385,.F.);
#297=ORIENTED_EDGE('',*,*,#386,.F.);
#298=CARTESIAN_POINT('',(0.0,0.0,-20.0));
#299=DIRECTION('',(0.0,0.0,-1.0));
#300=DIRECTION('',(-1.0,0.0,0.0));
#301=ORIENTED_EDGE('',*,*,#387,.F.);
#302=ORIENTED_EDGE('',*,*,#388,.F.);
#303=ORIENTED_EDGE('',*,*,#382,.T.);
#304=ORIENTED_EDGE('',*,*,#378,.T.);
#305=CARTESIAN_POINT('',(2.5,40.0,-20.0));
#306=DIRECTION('',(-1.22460635382238E-16,1.0,0.0));
#307=DIRECTION('',(-1.0,-1.22460635382238E-16,0.0));
#308=ORIENTED_EDGE('',*,*,#389,.F.);
#309=ORIENTED_EDGE('',*,*,#390,.F.);
#310=ORIENTED_EDGE('',*,*,#380,.F.);
#311=ORIENTED_EDGE('',*,*,#381,.T.);
#312=ORIENTED_EDGE('',*,*,#391,.T.);
#313=CARTESIAN_POINT('',(20.0,0.0,-20.0));
#314=DIRECTION('',(1.22460635382238E-16,-1.0,0.0));
#315=DIRECTION('',(1.0,1.22460635382238E-16,0.0));
#316=ORIENTED_EDGE('',*,*,#392,.F.);
#317=ORIENTED_EDGE('',*,*,#391,.F.);
#318=ORIENTED_EDGE('',*,*,#386,.T.);
#319=ORIENTED_EDGE('',*,*,#393,.T.);
#320=CARTESIAN_POINT('',(40.0,2.5,-20.0));
#321=DIRECTION('',(1.0,-6.12303176911189E-17,0.0));
#322=DIRECTION('',(6.12303176911189E-17,1.0,0.0));
#323=ORIENTED_EDGE('',*,*,#394,.T.);
#324=ORIENTED_EDGE('',*,*,#389,.T.);
#325=CARTESIAN_POINT('',(20.0,5.00000000000009,0.0));
#326=DIRECTION('',(1.22460635382238E-16,-1.0,0.0));
#327=DIRECTION('',(0.0,0.0,1.0));
#328=ORIENTED_EDGE('',*,*,#395,.F.);
#329=ORIENTED_EDGE('',*,*,#396,.F.);
#330=CARTESIAN_POINT('',(0.449999999999939,20.0,0.0));
#331=DIRECTION('',(1.0,2.1060627200531E-16,-0.0));
#332=DIRECTION('',(0.0,0.0,1.0));
#333=ORIENTED_EDGE('',*,*,#394,.F.);
#334=ORIENTED_EDGE('',*,*,#397,.F.);
#335=CARTESIAN_POINT('',(20.0,0.450000000000084,0.0));
#336=DIRECTION('',(-1.22460635382238E-16,1.0,-0.0));
#337=DIRECTION('',(0.0,0.0,1.0));
#338=ORIENTED_EDGE('',*,*,#390,.T.);
#339=ORIENTED_EDGE('',*,*,#392,.T.);
#340=ORIENTED_EDGE('',*,*,#398,.T.);
#341=ORIENTED_EDGE('',*,*,#399,.T.);
#342=ORIENTED_EDGE('',*,*,#400,.T.);
#343=ORIENTED_EDGE('',*,*,#387,.T.);
#344=ORIENTED_EDGE('',*,*,#377,.T.);
#345=CARTESIAN_POINT('',(0.0,0.0,20.0));
#346=DIRECTION('',(0.0,0.0,-1.0));
#347=DIRECTION('',(-1.0,0.0,0.0));
#348=ORIENTED_EDGE('',*,*,#397,.T.);
#349=ORIENTED_EDGE('',*,*,#385,.T.);
#350=ORIENTED_EDGE('',*,*,#401,.T.);
#351=ORIENTED_EDGE('',*,*,#398,.F.);
#352=ORIENTED_EDGE('',*,*,#393,.F.);
#353=CARTESIAN_POINT('',(22.5,5.0,-20.0));
#354=DIRECTION('',(-1.22460635382238E-16,1.0,0.0));
#355=DIRECTION('',(-1.0,-1.22460635382238E-16,0.0));
#356=ORIENTED_EDGE('',*,*,#396,.T.);
#357=ORIENTED_EDGE('',*,*,#400,.F.);
#358=ORIENTED_EDGE('',*,*,#402,.T.);
#359=ORIENTED_EDGE('',*,*,#383,.T.);
#360=ORIENTED_EDGE('',*,*,#388,.T.);
#361=CARTESIAN_POINT('',(5.0,22.5,-20.0));
#362=DIRECTION('',(1.0,6.12303176911189E-17,0.0));
#363=DIRECTION('',(-6.12303176911189E-17,1.0,0.0));
#364=ORIENTED_EDGE('',*,*,#384,.F.);
#365=ORIENTED_EDGE('',*,*,#402,.F.);
#366=ORIENTED_EDGE('',*,*,#399,.F.);
#367=ORIENTED_EDGE('',*,*,#401,.F.);
#368=CARTESIAN_POINT('',(7.5,7.5,-20.0));
#369=DIRECTION('',(0.0,0.0,-1.0));
#370=DIRECTION('',(-1.0,0.0,0.0));
#371=ORIENTED_EDGE('',*,*,#395,.T.);
#372=ORIENTED_EDGE('',*,*,#376,.T.);
#373=CARTESIAN_POINT('',(4.99999999999994,20.0,0.0));
#374=DIRECTION('',(-1.0,-2.1060627200531E-16,0.0));
#375=DIRECTION('',(0.0,0.0,1.0));
#376=EDGE_CURVE('',#403,#403,#404,.T.);
#377=EDGE_CURVE('',#405,#406,#407,.T.);
#378=EDGE_CURVE('',#408,#405,#409,.T.);
#379=EDGE_CURVE('',#408,#410,#411,.T.);
#380=EDGE_CURVE('',#410,#406,#412,.T.);
#381=EDGE_CURVE('',#410,#413,#414,.T.);
#382=EDGE_CURVE('',#415,#408,#416,.T.);
#383=EDGE_CURVE('',#417,#415,#418,.T.);
#384=EDGE_CURVE('',#417,#419,#420,.F.);
#385=EDGE_CURVE('',#421,#419,#422,.T.);
#386=EDGE_CURVE('',#413,#421,#423,.T.);
#387=EDGE_CURVE('',#424,#405,#425,.T.);
#388=EDGE_CURVE('',#415,#424,#426,.T.);
#389=EDGE_CURVE('',#427,#427,#428,.T.);
#390=EDGE_CURVE('',#406,#429,#430,.T.);
#391=EDGE_CURVE('',#413,#429,#431,.T.);
#392=EDGE_CURVE('',#429,#432,#433,.T.);
#393=EDGE_CURVE('',#421,#432,#434,.T.);
#394=EDGE_CURVE('',#435,#435,#436,.T.);
#395=EDGE_CURVE('',#437,#437,#438,.T.);
#396=EDGE_CURVE('',#439,#439,#440,.T.);
#397=EDGE_CURVE('',#441,#441,#442,.T.);
#398=EDGE_CURVE('',#432,#443,#444,.T.);
#399=EDGE_CURVE('',#443,#445,#446,.T.);
#400=EDGE_CURVE('',#445,#424,#447,.T.);
#401=EDGE_CURVE('',#419,#443,#448,.T.);
#402=EDGE_CURVE('',#445,#417,#449,.F.);
#403=VERTEX_POINT('',#450);
#404=CIRCLE('',#451,4.2);
#405=VERTEX_POINT('',#452);
#406=VERTEX_POINT('',#453);
#407=LINE('',#454,#455);
#408=VERTEX_POINT('',#456);
#409=LINE('',#457,#458);
#410=VERTEX_POINT('',#459);
#411=LINE('',#460,#461);
#412=LINE('',#462,#463);
#413=VERTEX_POINT('',#464);
#414=LINE('',#465,#466);
#415=VERTEX_POINT('',#467);
#416=LINE('',#468,#469);
#417=VERTEX_POINT('',#470);
#418=LINE('',#471,#472);
#419=VERTEX_POINT('',#473);
#420=CIRCLE('',#474,2.5);
#421=VERTEX_POINT('',#475);
#422=LINE('',#476,#477);
#423=LINE('',#478,#479);
#424=VERTEX_POINT('',#480);
#425=LINE('',#481,#482);
#426=LINE('',#483,#484);
#427=VERTEX_POINT('',#485);
#428=CIRCLE('',#486,4.2);
#429=VERTEX_POINT('',#487);
#430=LINE('',#488,#489);
#431=LINE('',#490,#491);
#432=VERTEX_POINT('',#492);
#433=LINE('',#493,#494);
#434=LINE('',#495,#496);
#435=VERTEX_POINT('',#497);
#436=CIRCLE('',#498,4.2);
#437=VERTEX_POINT('',#499);
#438=CIRCLE('',#500,4.2);
#439=VERTEX_POINT('',#501);
#440=CIRCLE('',#502,8.75);
#441=VERTEX_POINT('',#503);
#442=CIRCLE('',#504,8.75);
#443=VERTEX_POINT('',#505);
#444=LINE('',#506,#507);
#445=VERTEX_POINT('',#508);
#446=CIRCLE('',#509,2.5);
#447=LINE('',#510,#511);
#448=LINE('',#512,#513);
#449=LINE('',#514,#515);
#450=CARTESIAN_POINT('',(7.71502002908097E-16,15.8,0.0));
#451=AXIS2_PLACEMENT_3D('',#516,#517,#518);
#452=CARTESIAN_POINT('',(-3.67381906146713E-15,40.0,20.0));
#453=CARTESIAN_POINT('',(3.67381906146713E-15,0.0,20.0));
#454=CARTESIAN_POINT('',(0.0,20.0,20.0));
#455=VECTOR('',#519,1.0);
#456=CARTESIAN_POINT('',(-3.67381906146713E-15,40.0,-20.0));
#457=CARTESIAN_POINT('',(-3.67381906146713E-15,40.0,-20.0));
#458=VECTOR('',#520,1.0);
#459=CARTESIAN_POINT('',(3.67381906146713E-15,0.0,-20.0));
#460=CARTESIAN_POINT('',(0.0,20.0,-20.0));
#461=VECTOR('',#521,1.0);
#462=CARTESIAN_POINT('',(3.67381906146713E-15,0.0,-20.0));
#463=VECTOR('',#522,1.0);
#464=CARTESIAN_POINT('',(40.0,0.0,-20.0));
#465=CARTESIAN_POINT('',(20.0,0.0,-20.0));
#466=VECTOR('',#523,1.0);
#467=CARTESIAN_POINT('',(5.0,40.0,-20.0));
#468=CARTESIAN_POINT('',(2.5,40.0,-20.0));
#469=VECTOR('',#524,1.0);
#470=CARTESIAN_POINT('',(5.0,7.5,-20.0));
#471=CARTESIAN_POINT('',(5.0,22.5,-20.0));
#472=VECTOR('',#525,1.0);
#473=CARTESIAN_POINT('',(7.5,5.0,-20.0));
#474=AXIS2_PLACEMENT_3D('',#526,#527,#528);
#475=CARTESIAN_POINT('',(40.0,5.0,-20.0));
#476=CARTESIAN_POINT('',(22.5,5.0,-20.0));
#477=VECTOR('',#529,1.0);
#478=CARTESIAN_POINT('',(40.0,2.5,-20.0));
#479=VECTOR('',#530,1.0);
#480=CARTESIAN_POINT('',(5.0,40.0,20.0));
#481=CARTESIAN_POINT('',(2.5,40.0,20.0));
#482=VECTOR('',#531,1.0);
#483=CARTESIAN_POINT('',(5.0,40.0,-20.0));
#484=VECTOR('',#532,1.0);
#485=CARTESIAN_POINT('',(24.2,5.14334668605398E-16,0.0));
#486=AXIS2_PLACEMENT_3D('',#533,#534,#535);
#487=CARTESIAN_POINT('',(40.0,0.0,20.0));
#488=CARTESIAN_POINT('',(20.0,0.0,20.0));
#489=VECTOR('',#536,1.0);
#490=CARTESIAN_POINT('',(40.0,0.0,-20.0));
#491=VECTOR('',#537,1.0);
#492=CARTESIAN_POINT('',(40.0,5.0,20.0));
#493=CARTESIAN_POINT('',(40.0,2.5,20.0));
#494=VECTOR('',#538,1.0);
#495=CARTESIAN_POINT('',(40.0,5.0,-20.0));
#496=VECTOR('',#539,1.0);
#497=CARTESIAN_POINT('',(15.8,0.450000000000083,0.0));
#498=AXIS2_PLACEMENT_3D('',#540,#541,#542);
#499=CARTESIAN_POINT('',(0.449999999999938,24.2,0.0));
#500=AXIS2_PLACEMENT_3D('',#543,#544,#545);
#501=CARTESIAN_POINT('',(4.99999999999994,20.0,8.75));
#502=AXIS2_PLACEMENT_3D('',#546,#547,#548);
#503=CARTESIAN_POINT('',(20.0,5.00000000000009,8.75));
#504=AXIS2_PLACEMENT_3D('',#549,#550,#551);
#505=CARTESIAN_POINT('',(7.5,5.0,20.0));
#506=CARTESIAN_POINT('',(22.5,5.0,20.0));
#507=VECTOR('',#552,1.0);
#508=CARTESIAN_POINT('',(5.0,7.5,20.0));
#509=AXIS2_PLACEMENT_3D('',#553,#554,#555);
#510=CARTESIAN_POINT('',(5.0,22.5,20.0));
#511=VECTOR('',#556,1.0);
#512=CARTESIAN_POINT('',(7.5,5.0,20.0));
#513=VECTOR('',#557,1.0);
#514=CARTESIAN_POINT('',(5.0,7.5,-20.0));
#515=VECTOR('',#558,1.0);
#516=CARTESIAN_POINT('',(0.0,20.0,0.0));
#517=DIRECTION('',(-1.0,-1.83690953073356E-16,0.0));
#518=DIRECTION('',(1.83690953073356E-16,-1.0,0.0));
#519=DIRECTION('',(1.83690953073356E-16,-1.0,0.0));
#520=DIRECTION('',(0.0,0.0,1.0));
#521=DIRECTION('',(1.83690953073356E-16,-1.0,0.0));
#522=DIRECTION('',(0.0,0.0,1.0));
#523=DIRECTION('',(1.0,1.22460635382238E-16,0.0));
#524=DIRECTION('',(-1.0,-1.22460635382238E-16,0.0));
#525=DIRECTION('',(-6.12303176911189E-17,1.0,0.0));
#526=CARTESIAN_POINT('',(7.5,7.5,-20.0));
#527=DIRECTION('',(0.0,0.0,-1.0));
#528=DIRECTION('',(-1.0,0.0,0.0));
#529=DIRECTION('',(-1.0,-1.22460635382238E-16,0.0));
#530=DIRECTION('',(6.12303176911189E-17,1.0,0.0));
#531=DIRECTION('',(-1.0,-1.22460635382238E-16,0.0));
#532=DIRECTION('',(0.0,0.0,1.0));
#533=CARTESIAN_POINT('',(20.0,0.0,0.0));
#534=DIRECTION('',(1.22460635382238E-16,-1.0,0.0));
#535=DIRECTION('',(1.0,1.22460635382238E-16,0.0));
#536=DIRECTION('',(1.0,1.22460635382238E-16,0.0));
#537=DIRECTION('',(0.0,0.0,1.0));
#538=DIRECTION('',(6.12303176911189E-17,1.0,0.0));
#539=DIRECTION('',(0.0,0.0,1.0));
#540=CARTESIAN_POINT('',(20.0,0.450000000000084,0.0));
#541=DIRECTION('',(-1.22460635382238E-16,1.0,0.0));
#542=DIRECTION('',(-1.0,-1.22460635382238E-16,0.0));
#543=CARTESIAN_POINT('',(0.449999999999939,20.0,0.0));
#544=DIRECTION('',(1.0,2.1060627200531E-16,0.0));
#545=DIRECTION('',(-2.10606272005309E-16,1.0,0.0));
#546=CARTESIAN_POINT('',(4.99999999999994,20.0,0.0));
#547=DIRECTION('',(-1.0,-2.10606272005309E-16,0.0));
#548=DIRECTION('',(0.0,0.0,1.0));
#549=CARTESIAN_POINT('',(20.0,5.00000000000009,0.0));
#550=DIRECTION('',(1.22460635382238E-16,-1.0,0.0));
#551=DIRECTION('',(0.0,0.0,1.0));
#552=DIRECTION('',(-1.0,-1.22460635382238E-16,0.0));
#553=CARTESIAN_POINT('',(7.5,7.5,20.0));
#554=DIRECTION('',(0.0,0.0,-1.0));
#555=DIRECTION('',(-1.0,0.0,0.0));
#556=DIRECTION('',(-6.12303176911189E-17,1.0,0.0));
#557=DIRECTION('',(0.0,0.0,1.0));
#558=DIRECTION('',(0.0,0.0,1.0));
ENDSEC;
END-ISO-10303-21;
