ISO-10303-21;
HEADER;
FILE_DESCRIPTION (( 'STEP AP214' ),
    '1' );
FILE_NAME ('FIXE00E5048-Rondelle 13,5x9x1.STEP',
    '2023-03-17T14:30:55',
    ( '' ),
    ( '' ),
    'SwSTEP 2.0',
    'SolidWorks 2021',
    '' );
FILE_SCHEMA (( 'AUTOMOTIVE_DESIGN' ));
ENDSEC;

DATA;
#1 = ORIENTED_EDGE ( 'NONE', *, *, #111, .T. ) ;
#2 = CARTESIAN_POINT ( 'NONE',  ( 0.000000000000000000, 0.000000000000000000, 0.000000000000000000 ) ) ;
#3 = FILL_AREA_STYLE ('',( #101 ) ) ;
#4 = ORIENTED_EDGE ( 'NONE', *, *, #78, .F. ) ;
#5 = DIRECTION ( 'NONE',  ( 0.000000000000000000, 0.000000000000000000, 1.000000000000000000 ) ) ;
#6 = EDGE_LOOP ( 'NONE', ( #48, #139 ) ) ;
#7 = SURFACE_SIDE_STYLE ('',( #263 ) ) ;
#8 = MECHANICAL_DESIGN_GEOMETRIC_PRESENTATION_REPRESENTATION (  '', ( #201 ), #93 ) ;
#9 =( LENGTH_UNIT ( ) NAMED_UNIT ( * ) SI_UNIT ( .MILLI., .METRE. ) );
#10 =( LENGTH_UNIT ( ) NAMED_UNIT ( * ) SI_UNIT ( .MILLI., .METRE. ) );
#11 = DIRECTION ( 'NONE',  ( 0.000000000000000000, 0.000000000000000000, 1.000000000000000000 ) ) ;
#12 = LINE ( 'NONE', #251, #35 ) ;
#13 =( NAMED_UNIT ( * ) PLANE_ANGLE_UNIT ( ) SI_UNIT ( $, .RADIAN. ) );
#14 = CIRCLE ( 'NONE', #108, 6.750000000000000000 ) ;
#15 = FILL_AREA_STYLE ('',( #280 ) ) ;
#16 = DIRECTION ( 'NONE',  ( 0.000000000000000000, 1.000000000000000000, 0.000000000000000000 ) ) ;
#17 = DIRECTION ( 'NONE',  ( -0.000000000000000000, -1.000000000000000000, -0.000000000000000000 ) ) ;
#18 = ADVANCED_FACE ( 'NONE', ( #87 ), #99, .F. ) ;
#19 = VECTOR ( 'NONE', #213, 1000.000000000000000 ) ;
#20 =( GEOMETRIC_REPRESENTATION_CONTEXT ( 3 ) GLOBAL_UNCERTAINTY_ASSIGNED_CONTEXT ( ( #166 ) ) GLOBAL_UNIT_ASSIGNED_CONTEXT ( ( #192, #13, #193 ) ) REPRESENTATION_CONTEXT ( 'NONE', 'WORKASPACE' ) );
#21 = DIRECTION ( 'NONE',  ( 0.000000000000000000, 1.000000000000000000, 0.000000000000000000 ) ) ;
#22 = VERTEX_POINT ( 'NONE', #36 ) ;
#23 = ORIENTED_EDGE ( 'NONE', *, *, #33, .F. ) ;
#24 =( NAMED_UNIT ( * ) SI_UNIT ( $, .STERADIAN. ) SOLID_ANGLE_UNIT ( ) );
#25 = CARTESIAN_POINT ( 'NONE',  ( 0.000000000000000000, 0.000000000000000000, 0.000000000000000000 ) ) ;
#26 = ORIENTED_EDGE ( 'NONE', *, *, #55, .T. ) ;
#27 = SHAPE_DEFINITION_REPRESENTATION ( #40, #131 ) ;
#28 = EDGE_LOOP ( 'NONE', ( #265, #209 ) ) ;
#29 = PRESENTATION_STYLE_ASSIGNMENT (( #286 ) ) ;
#30 = LINE ( 'NONE', #32, #19 ) ;
#31 = DIRECTION ( 'NONE',  ( 0.000000000000000000, 0.000000000000000000, 1.000000000000000000 ) ) ;
#32 = CARTESIAN_POINT ( 'NONE',  ( 5.510910596163088569E-16, 1.000000000000000000, 4.500000000000000000 ) ) ;
#33 = EDGE_CURVE ( 'NONE', #53, #231, #30, .T. ) ;
#34 = PRESENTATION_STYLE_ASSIGNMENT (( #243 ) ) ;
#35 = VECTOR ( 'NONE', #44, 1000.000000000000000 ) ;
#36 = CARTESIAN_POINT ( 'NONE',  ( 0.000000000000000000, 1.000000000000000000, -4.500000000000000000 ) ) ;
#37 = ORIENTED_EDGE ( 'NONE', *, *, #199, .F. ) ;
#38 = ADVANCED_FACE ( 'NONE', ( #287 ), #261, .F. ) ;
#39 = PRESENTATION_LAYER_ASSIGNMENT (  '', '', ( #70 ) ) ;
#40 = PRODUCT_DEFINITION_SHAPE ( 'NONE', 'NONE',  #300 ) ;
#41 = PRESENTATION_LAYER_ASSIGNMENT (  '', '', ( #178 ) ) ;
#42 = UNCERTAINTY_MEASURE_WITH_UNIT (LENGTH_MEASURE( 1.000000000000000082E-05 ), #56, 'distance_accuracy_value', 'NONE');
#43 = APPLICATION_CONTEXT ( 'automotive_design' ) ;
#44 = DIRECTION ( 'NONE',  ( -0.000000000000000000, -1.000000000000000000, -0.000000000000000000 ) ) ;
#45 =( GEOMETRIC_REPRESENTATION_CONTEXT ( 3 ) GLOBAL_UNCERTAINTY_ASSIGNED_CONTEXT ( ( #217 ) ) GLOBAL_UNIT_ASSIGNED_CONTEXT ( ( #149, #168, #81 ) ) REPRESENTATION_CONTEXT ( 'NONE', 'WORKASPACE' ) );
#46 = MECHANICAL_DESIGN_GEOMETRIC_PRESENTATION_REPRESENTATION (  '', ( #274 ), #228 ) ;
#47 = SURFACE_STYLE_FILL_AREA ( #95 ) ;
#48 = ORIENTED_EDGE ( 'NONE', *, *, #232, .T. ) ;
#49 = SURFACE_SIDE_STYLE ('',( #47 ) ) ;
#50 = VERTEX_POINT ( 'NONE', #272 ) ;
#51 = PRESENTATION_LAYER_ASSIGNMENT (  '', '', ( #274 ) ) ;
#52 = CARTESIAN_POINT ( 'NONE',  ( 0.000000000000000000, 1.000000000000000000, 0.000000000000000000 ) ) ;
#53 = VERTEX_POINT ( 'NONE', #218 ) ;
#54 = ORIENTED_EDGE ( 'NONE', *, *, #150, .T. ) ;
#55 = EDGE_CURVE ( 'NONE', #22, #53, #97, .T. ) ;
#56 =( LENGTH_UNIT ( ) NAMED_UNIT ( * ) SI_UNIT ( .MILLI., .METRE. ) );
#57 = ORIENTED_EDGE ( 'NONE', *, *, #232, .F. ) ;
#58 = SURFACE_STYLE_USAGE ( .BOTH. , #7 ) ;
#59 = DIRECTION ( 'NONE',  ( 0.000000000000000000, 1.000000000000000000, 0.000000000000000000 ) ) ;
#60 = ORIENTED_EDGE ( 'NONE', *, *, #270, .T. ) ;
#61 = EDGE_CURVE ( 'NONE', #53, #22, #189, .T. ) ;
#62 = SURFACE_SIDE_STYLE ('',( #208 ) ) ;
#63 = CARTESIAN_POINT ( 'NONE',  ( 5.510910596163088569E-16, 0.000000000000000000, 4.500000000000000000 ) ) ;
#64 =( NAMED_UNIT ( * ) SI_UNIT ( $, .STERADIAN. ) SOLID_ANGLE_UNIT ( ) );
#65 = AXIS2_PLACEMENT_3D ( 'NONE', #130, #246, #11 ) ;
#66 = DIRECTION ( 'NONE',  ( 0.000000000000000000, 1.000000000000000000, 0.000000000000000000 ) ) ;
#67 = PRESENTATION_LAYER_ASSIGNMENT (  '', '', ( #155 ) ) ;
#68 = UNCERTAINTY_MEASURE_WITH_UNIT (LENGTH_MEASURE( 1.000000000000000082E-05 ), #10, 'distance_accuracy_value', 'NONE');
#69 = PLANE ( 'NONE',  #195 ) ;
#70 = STYLED_ITEM ( 'NONE', ( #127 ), #18 ) ;
#71 = MECHANICAL_DESIGN_GEOMETRIC_PRESENTATION_REPRESENTATION (  '', ( #76 ), #161 ) ;
#72 = EDGE_CURVE ( 'NONE', #231, #204, #175, .T. ) ;
#73 = CYLINDRICAL_SURFACE ( 'NONE', #82, 6.750000000000000000 ) ;
#74 = EDGE_LOOP ( 'NONE', ( #4, #96 ) ) ;
#75 = DIRECTION ( 'NONE',  ( 0.000000000000000000, 0.000000000000000000, 1.000000000000000000 ) ) ;
#76 = STYLED_ITEM ( 'NONE', ( #200 ), #104 ) ;
#77 = DIRECTION ( 'NONE',  ( 0.000000000000000000, 1.000000000000000000, 0.000000000000000000 ) ) ;
#78 = EDGE_CURVE ( 'NONE', #98, #50, #14, .T. ) ;
#79 = CARTESIAN_POINT ( 'NONE',  ( 0.000000000000000000, 1.000000000000000000, 0.000000000000000000 ) ) ;
#80 = PLANE ( 'NONE',  #170 ) ;
#81 =( NAMED_UNIT ( * ) SI_UNIT ( $, .STERADIAN. ) SOLID_ANGLE_UNIT ( ) );
#82 = AXIS2_PLACEMENT_3D ( 'NONE', #52, #113, #176 ) ;
#83 = FILL_AREA_STYLE ('',( #188 ) ) ;
#84 = EDGE_LOOP ( 'NONE', ( #203, #37, #60, #254 ) ) ;
#85 = CARTESIAN_POINT ( 'NONE',  ( 0.000000000000000000, 1.000000000000000000, 0.000000000000000000 ) ) ;
#86 = PRODUCT_DEFINITION_CONTEXT ( 'detailed design', #43, 'design' ) ;
#87 = FACE_OUTER_BOUND ( 'NONE', #112, .T. ) ;
#88 = SURFACE_STYLE_USAGE ( .BOTH. , #142 ) ;
#89 = UNCERTAINTY_MEASURE_WITH_UNIT (LENGTH_MEASURE( 1.000000000000000082E-05 ), #184, 'distance_accuracy_value', 'NONE');
#90 = PRESENTATION_STYLE_ASSIGNMENT (( #92 ) ) ;
#91 = FILL_AREA_STYLE_COLOUR ( '', #298 ) ;
#92 = SURFACE_STYLE_USAGE ( .BOTH. , #152 ) ;
#93 =( GEOMETRIC_REPRESENTATION_CONTEXT ( 3 ) GLOBAL_UNCERTAINTY_ASSIGNED_CONTEXT ( ( #191 ) ) GLOBAL_UNIT_ASSIGNED_CONTEXT ( ( #118, #214, #102 ) ) REPRESENTATION_CONTEXT ( 'NONE', 'WORKASPACE' ) );
#94 = EDGE_LOOP ( 'NONE', ( #281, #54, #255, #235 ) ) ;
#95 = FILL_AREA_STYLE ('',( #205 ) ) ;
#96 = ORIENTED_EDGE ( 'NONE', *, *, #136, .F. ) ;
#97 = CIRCLE ( 'NONE', #206, 4.500000000000000000 ) ;
#98 = VERTEX_POINT ( 'NONE', #257 ) ;
#99 = CYLINDRICAL_SURFACE ( 'NONE', #283, 4.500000000000000000 ) ;
#100 = CIRCLE ( 'NONE', #117, 4.500000000000000000 ) ;
#101 = FILL_AREA_STYLE_COLOUR ( '', #132 ) ;
#102 =( NAMED_UNIT ( * ) SI_UNIT ( $, .STERADIAN. ) SOLID_ANGLE_UNIT ( ) );
#103 =( NAMED_UNIT ( * ) PLANE_ANGLE_UNIT ( ) SI_UNIT ( $, .RADIAN. ) );
#104 = ADVANCED_FACE ( 'NONE', ( #160 ), #73, .T. ) ;
#105 = PRESENTATION_LAYER_ASSIGNMENT (  '', '', ( #236 ) ) ;
#106 = DIRECTION ( 'NONE',  ( 0.000000000000000000, 1.000000000000000000, 0.000000000000000000 ) ) ;
#107 =( NAMED_UNIT ( * ) SI_UNIT ( $, .STERADIAN. ) SOLID_ANGLE_UNIT ( ) );
#108 = AXIS2_PLACEMENT_3D ( 'NONE', #2, #21, #75 ) ;
#109 = CARTESIAN_POINT ( 'NONE',  ( 0.000000000000000000, 1.000000000000000000, 0.000000000000000000 ) ) ;
#110 =( NAMED_UNIT ( * ) PLANE_ANGLE_UNIT ( ) SI_UNIT ( $, .RADIAN. ) );
#111 = EDGE_CURVE ( 'NONE', #22, #204, #177, .T. ) ;
#112 = EDGE_LOOP ( 'NONE', ( #26, #198, #57, #227 ) ) ;
#113 = DIRECTION ( 'NONE',  ( -0.000000000000000000, -1.000000000000000000, -0.000000000000000000 ) ) ;
#114 =( NAMED_UNIT ( * ) PLANE_ANGLE_UNIT ( ) SI_UNIT ( $, .RADIAN. ) );
#115 = PRODUCT_CONTEXT ( 'NONE', #295, 'mechanical' ) ;
#116 = AXIS2_PLACEMENT_3D ( 'NONE', #171, #106, #153 ) ;
#117 = AXIS2_PLACEMENT_3D ( 'NONE', #25, #241, #31 ) ;
#118 =( LENGTH_UNIT ( ) NAMED_UNIT ( * ) SI_UNIT ( .MILLI., .METRE. ) );
#119 = DIRECTION ( 'NONE',  ( -0.000000000000000000, -1.000000000000000000, -0.000000000000000000 ) ) ;
#120 = VERTEX_POINT ( 'NONE', #162 ) ;
#121 = CYLINDRICAL_SURFACE ( 'NONE', #252, 6.750000000000000000 ) ;
#122 = FILL_AREA_STYLE_COLOUR ( '', #297 ) ;
#123 = PRESENTATION_LAYER_ASSIGNMENT (  '', '', ( #201 ) ) ;
#124 = PRODUCT_DEFINITION_FORMATION_WITH_SPECIFIED_SOURCE ( 'ANY', '', #210, .NOT_KNOWN. ) ;
#125 = FILL_AREA_STYLE_COLOUR ( '', #291 ) ;
#126 = ADVANCED_FACE ( 'NONE', ( #301, #196 ), #69, .T. ) ;
#127 = PRESENTATION_STYLE_ASSIGNMENT (( #88 ) ) ;
#128 = COLOUR_RGB ( '',0.6509803921568627638, 0.6196078431372549211, 0.5882352941176470784 ) ;
#129 = APPLICATION_PROTOCOL_DEFINITION ( 'draft international standard', 'automotive_design', 1998, #295 ) ;
#130 = CARTESIAN_POINT ( 'NONE',  ( 0.000000000000000000, 0.000000000000000000, 0.000000000000000000 ) ) ;
#131 = ADVANCED_BREP_SHAPE_REPRESENTATION ( 'FIXE00E5048-Rondelle 13,5x9x1', ( #239, #223 ), #20 ) ;
#132 = COLOUR_RGB ( '',0.7921568627450980005, 0.8196078431372548767, 0.9333333333333333481 ) ;
#133 =( NAMED_UNIT ( * ) SI_UNIT ( $, .STERADIAN. ) SOLID_ANGLE_UNIT ( ) );
#134 = ORIENTED_EDGE ( 'NONE', *, *, #61, .T. ) ;
#135 = SURFACE_STYLE_FILL_AREA ( #15 ) ;
#136 = EDGE_CURVE ( 'NONE', #50, #98, #237, .T. ) ;
#137 = AXIS2_PLACEMENT_3D ( 'NONE', #85, #59, #144 ) ;
#138 = CARTESIAN_POINT ( 'NONE',  ( 0.000000000000000000, 1.000000000000000000, -4.500000000000000000 ) ) ;
#139 = ORIENTED_EDGE ( 'NONE', *, *, #72, .T. ) ;
#140 = EDGE_LOOP ( 'NONE', ( #23, #134, #1, #293 ) ) ;
#141 = FACE_OUTER_BOUND ( 'NONE', #84, .T. ) ;
#142 = SURFACE_SIDE_STYLE ('',( #242 ) ) ;
#143 = MECHANICAL_DESIGN_GEOMETRIC_PRESENTATION_REPRESENTATION (  '', ( #236 ), #302 ) ;
#144 = DIRECTION ( 'NONE',  ( 0.000000000000000000, 0.000000000000000000, 1.000000000000000000 ) ) ;
#145 = PRESENTATION_STYLE_ASSIGNMENT (( #58 ) ) ;
#146 = CARTESIAN_POINT ( 'NONE',  ( 0.000000000000000000, 1.000000000000000000, -6.750000000000000000 ) ) ;
#147 = SURFACE_STYLE_FILL_AREA ( #83 ) ;
#148 = UNCERTAINTY_MEASURE_WITH_UNIT (LENGTH_MEASURE( 1.000000000000000082E-05 ), #260, 'distance_accuracy_value', 'NONE');
#149 =( LENGTH_UNIT ( ) NAMED_UNIT ( * ) SI_UNIT ( .MILLI., .METRE. ) );
#150 = EDGE_CURVE ( 'NONE', #120, #50, #197, .T. ) ;
#151 = AXIS2_PLACEMENT_3D ( 'NONE', #159, #187, #233 ) ;
#152 = SURFACE_SIDE_STYLE ('',( #275 ) ) ;
#153 = DIRECTION ( 'NONE',  ( 0.000000000000000000, 0.000000000000000000, 1.000000000000000000 ) ) ;
#154 = EDGE_CURVE ( 'NONE', #120, #229, #292, .T. ) ;
#155 = STYLED_ITEM ( 'NONE', ( #145 ), #38 ) ;
#156 = DIRECTION ( 'NONE',  ( 0.000000000000000000, 0.000000000000000000, -1.000000000000000000 ) ) ;
#157 = MECHANICAL_DESIGN_GEOMETRIC_PRESENTATION_REPRESENTATION (  '', ( #258 ), #279 ) ;
#158 = DIRECTION ( 'NONE',  ( 0.000000000000000000, -0.000000000000000000, 1.000000000000000000 ) ) ;
#159 = CARTESIAN_POINT ( 'NONE',  ( 0.000000000000000000, 1.000000000000000000, 0.000000000000000000 ) ) ;
#160 = FACE_OUTER_BOUND ( 'NONE', #94, .T. ) ;
#161 =( GEOMETRIC_REPRESENTATION_CONTEXT ( 3 ) GLOBAL_UNCERTAINTY_ASSIGNED_CONTEXT ( ( #148 ) ) GLOBAL_UNIT_ASSIGNED_CONTEXT ( ( #260, #226, #253 ) ) REPRESENTATION_CONTEXT ( 'NONE', 'WORKASPACE' ) );
#162 = CARTESIAN_POINT ( 'NONE',  ( 8.266365894244634333E-16, 1.000000000000000000, 6.750000000000000000 ) ) ;
#163 = SURFACE_SIDE_STYLE ('',( #179 ) ) ;
#164 = CARTESIAN_POINT ( 'NONE',  ( 0.000000000000000000, 1.000000000000000000, 0.000000000000000000 ) ) ;
#165 = COLOUR_RGB ( '',0.6509803921568627638, 0.6196078431372549211, 0.5882352941176470784 ) ;
#166 = UNCERTAINTY_MEASURE_WITH_UNIT (LENGTH_MEASURE( 1.000000000000000082E-05 ), #192, 'distance_accuracy_value', 'NONE');
#167 =( NAMED_UNIT ( * ) SI_UNIT ( $, .STERADIAN. ) SOLID_ANGLE_UNIT ( ) );
#168 =( NAMED_UNIT ( * ) PLANE_ANGLE_UNIT ( ) SI_UNIT ( $, .RADIAN. ) );
#169 = UNCERTAINTY_MEASURE_WITH_UNIT (LENGTH_MEASURE( 1.000000000000000082E-05 ), #9, 'distance_accuracy_value', 'NONE');
#170 = AXIS2_PLACEMENT_3D ( 'NONE', #277, #250, #158 ) ;
#171 = CARTESIAN_POINT ( 'NONE',  ( 0.000000000000000000, 1.000000000000000000, 0.000000000000000000 ) ) ;
#172 =( NAMED_UNIT ( * ) PLANE_ANGLE_UNIT ( ) SI_UNIT ( $, .RADIAN. ) );
#173 = DIRECTION ( 'NONE',  ( 0.000000000000000000, -0.000000000000000000, 1.000000000000000000 ) ) ;
#174 = SURFACE_STYLE_USAGE ( .BOTH. , #304 ) ;
#175 = CIRCLE ( 'NONE', #65, 4.500000000000000000 ) ;
#176 = DIRECTION ( 'NONE',  ( 0.000000000000000000, 0.000000000000000000, -1.000000000000000000 ) ) ;
#177 = LINE ( 'NONE', #138, #221 ) ;
#178 = STYLED_ITEM ( 'NONE', ( #212 ), #194 ) ;
#179 = SURFACE_STYLE_FILL_AREA ( #294 ) ;
#180 = FILL_AREA_STYLE ('',( #122 ) ) ;
#181 = EDGE_LOOP ( 'NONE', ( #182, #259 ) ) ;
#182 = ORIENTED_EDGE ( 'NONE', *, *, #55, .F. ) ;
#183 = DIRECTION ( 'NONE',  ( 1.000000000000000000, 0.000000000000000000, 0.000000000000000000 ) ) ;
#184 =( LENGTH_UNIT ( ) NAMED_UNIT ( * ) SI_UNIT ( .MILLI., .METRE. ) );
#185 = CLOSED_SHELL ( 'NONE', ( #18, #104, #126, #249, #194, #38 ) ) ;
#186 = COLOUR_RGB ( '',0.6509803921568627638, 0.6196078431372549211, 0.5882352941176470784 ) ;
#187 = DIRECTION ( 'NONE',  ( 0.000000000000000000, 1.000000000000000000, 0.000000000000000000 ) ) ;
#188 = FILL_AREA_STYLE_COLOUR ( '', #186 ) ;
#189 = CIRCLE ( 'NONE', #116, 4.500000000000000000 ) ;
#190 = COLOUR_RGB ( '',0.6509803921568627638, 0.6196078431372549211, 0.5882352941176470784 ) ;
#191 = UNCERTAINTY_MEASURE_WITH_UNIT (LENGTH_MEASURE( 1.000000000000000082E-05 ), #118, 'distance_accuracy_value', 'NONE');
#192 =( LENGTH_UNIT ( ) NAMED_UNIT ( * ) SI_UNIT ( .MILLI., .METRE. ) );
#193 =( NAMED_UNIT ( * ) SI_UNIT ( $, .STERADIAN. ) SOLID_ANGLE_UNIT ( ) );
#194 = ADVANCED_FACE ( 'NONE', ( #141 ), #121, .T. ) ;
#195 = AXIS2_PLACEMENT_3D ( 'NONE', #109, #77, #173 ) ;
#196 = FACE_BOUND ( 'NONE', #181, .T. ) ;
#197 = LINE ( 'NONE', #299, #245 ) ;
#198 = ORIENTED_EDGE ( 'NONE', *, *, #33, .T. ) ;
#199 = EDGE_CURVE ( 'NONE', #229, #120, #264, .T. ) ;
#200 = PRESENTATION_STYLE_ASSIGNMENT (( #174 ) ) ;
#201 = STYLED_ITEM ( 'NONE', ( #34 ), #239 ) ;
#202 = DIRECTION ( 'NONE',  ( 0.000000000000000000, 0.000000000000000000, 1.000000000000000000 ) ) ;
#203 = ORIENTED_EDGE ( 'NONE', *, *, #150, .F. ) ;
#204 = VERTEX_POINT ( 'NONE', #234 ) ;
#205 = FILL_AREA_STYLE_COLOUR ( '', #165 ) ;
#206 = AXIS2_PLACEMENT_3D ( 'NONE', #271, #66, #296 ) ;
#207 = MECHANICAL_DESIGN_GEOMETRIC_PRESENTATION_REPRESENTATION (  '', ( #178 ), #278 ) ;
#208 = SURFACE_STYLE_FILL_AREA ( #3 ) ;
#209 = ORIENTED_EDGE ( 'NONE', *, *, #154, .T. ) ;
#210 = PRODUCT ( 'FIXE00E5048-Rondelle 13,5x9x1', 'FIXE00E5048-Rondelle 13,5x9x1', '', ( #115 ) ) ;
#211 = FACE_OUTER_BOUND ( 'NONE', #74, .T. ) ;
#212 = PRESENTATION_STYLE_ASSIGNMENT (( #266 ) ) ;
#213 = DIRECTION ( 'NONE',  ( -0.000000000000000000, -1.000000000000000000, -0.000000000000000000 ) ) ;
#214 =( NAMED_UNIT ( * ) PLANE_ANGLE_UNIT ( ) SI_UNIT ( $, .RADIAN. ) );
#215 = FILL_AREA_STYLE ('',( #125 ) ) ;
#216 = DIRECTION ( 'NONE',  ( 0.000000000000000000, 0.000000000000000000, -1.000000000000000000 ) ) ;
#217 = UNCERTAINTY_MEASURE_WITH_UNIT (LENGTH_MEASURE( 1.000000000000000082E-05 ), #149, 'distance_accuracy_value', 'NONE');
#218 = CARTESIAN_POINT ( 'NONE',  ( 5.510910596163088569E-16, 1.000000000000000000, 4.500000000000000000 ) ) ;
#219 = FILL_AREA_STYLE ('',( #91 ) ) ;
#220 = CARTESIAN_POINT ( 'NONE',  ( 0.000000000000000000, 0.000000000000000000, 0.000000000000000000 ) ) ;
#221 = VECTOR ( 'NONE', #17, 1000.000000000000000 ) ;
#222 = DIRECTION ( 'NONE',  ( -0.000000000000000000, -1.000000000000000000, -0.000000000000000000 ) ) ;
#223 = AXIS2_PLACEMENT_3D ( 'NONE', #220, #5, #183 ) ;
#224 =( NAMED_UNIT ( * ) PLANE_ANGLE_UNIT ( ) SI_UNIT ( $, .RADIAN. ) );
#225 = SURFACE_STYLE_USAGE ( .BOTH. , #49 ) ;
#226 =( NAMED_UNIT ( * ) PLANE_ANGLE_UNIT ( ) SI_UNIT ( $, .RADIAN. ) );
#227 = ORIENTED_EDGE ( 'NONE', *, *, #111, .F. ) ;
#228 =( GEOMETRIC_REPRESENTATION_CONTEXT ( 3 ) GLOBAL_UNCERTAINTY_ASSIGNED_CONTEXT ( ( #247 ) ) GLOBAL_UNIT_ASSIGNED_CONTEXT ( ( #303, #110, #24 ) ) REPRESENTATION_CONTEXT ( 'NONE', 'WORKASPACE' ) );
#229 = VERTEX_POINT ( 'NONE', #146 ) ;
#230 = PRESENTATION_LAYER_ASSIGNMENT (  '', '', ( #258 ) ) ;
#231 = VERTEX_POINT ( 'NONE', #63 ) ;
#232 = EDGE_CURVE ( 'NONE', #204, #231, #100, .T. ) ;
#233 = DIRECTION ( 'NONE',  ( 0.000000000000000000, 0.000000000000000000, 1.000000000000000000 ) ) ;
#234 = CARTESIAN_POINT ( 'NONE',  ( 0.000000000000000000, 0.000000000000000000, -4.500000000000000000 ) ) ;
#235 = ORIENTED_EDGE ( 'NONE', *, *, #270, .F. ) ;
#236 = STYLED_ITEM ( 'NONE', ( #29 ), #249 ) ;
#237 = CIRCLE ( 'NONE', #248, 6.750000000000000000 ) ;
#238 = DIRECTION ( 'NONE',  ( 0.000000000000000000, 0.000000000000000000, -1.000000000000000000 ) ) ;
#239 = MANIFOLD_SOLID_BREP ( 'Boss.-Extru.1', #185 ) ;
#240 = PRODUCT_RELATED_PRODUCT_CATEGORY ( 'part', '', ( #210 ) ) ;
#241 = DIRECTION ( 'NONE',  ( 0.000000000000000000, 1.000000000000000000, 0.000000000000000000 ) ) ;
#242 = SURFACE_STYLE_FILL_AREA ( #180 ) ;
#243 = SURFACE_STYLE_USAGE ( .BOTH. , #62 ) ;
#244 = MECHANICAL_DESIGN_GEOMETRIC_PRESENTATION_REPRESENTATION (  '', ( #155 ), #273 ) ;
#245 = VECTOR ( 'NONE', #276, 1000.000000000000000 ) ;
#246 = DIRECTION ( 'NONE',  ( 0.000000000000000000, 1.000000000000000000, 0.000000000000000000 ) ) ;
#247 = UNCERTAINTY_MEASURE_WITH_UNIT (LENGTH_MEASURE( 1.000000000000000082E-05 ), #303, 'distance_accuracy_value', 'NONE');
#248 = AXIS2_PLACEMENT_3D ( 'NONE', #282, #16, #202 ) ;
#249 = ADVANCED_FACE ( 'NONE', ( #211, #288 ), #80, .F. ) ;
#250 = DIRECTION ( 'NONE',  ( 0.000000000000000000, 1.000000000000000000, 0.000000000000000000 ) ) ;
#251 = CARTESIAN_POINT ( 'NONE',  ( 0.000000000000000000, 1.000000000000000000, -6.750000000000000000 ) ) ;
#252 = AXIS2_PLACEMENT_3D ( 'NONE', #79, #268, #238 ) ;
#253 =( NAMED_UNIT ( * ) SI_UNIT ( $, .STERADIAN. ) SOLID_ANGLE_UNIT ( ) );
#254 = ORIENTED_EDGE ( 'NONE', *, *, #78, .T. ) ;
#255 = ORIENTED_EDGE ( 'NONE', *, *, #136, .T. ) ;
#256 = MECHANICAL_DESIGN_GEOMETRIC_PRESENTATION_REPRESENTATION (  '', ( #70 ), #45 ) ;
#257 = CARTESIAN_POINT ( 'NONE',  ( 0.000000000000000000, 0.000000000000000000, -6.750000000000000000 ) ) ;
#258 = STYLED_ITEM ( 'NONE', ( #90 ), #131 ) ;
#259 = ORIENTED_EDGE ( 'NONE', *, *, #61, .F. ) ;
#260 =( LENGTH_UNIT ( ) NAMED_UNIT ( * ) SI_UNIT ( .MILLI., .METRE. ) );
#261 = CYLINDRICAL_SURFACE ( 'NONE', #269, 4.500000000000000000 ) ;
#262 = SURFACE_SIDE_STYLE ('',( #147 ) ) ;
#263 = SURFACE_STYLE_FILL_AREA ( #215 ) ;
#264 = CIRCLE ( 'NONE', #137, 6.750000000000000000 ) ;
#265 = ORIENTED_EDGE ( 'NONE', *, *, #199, .T. ) ;
#266 = SURFACE_STYLE_USAGE ( .BOTH. , #262 ) ;
#267 = CARTESIAN_POINT ( 'NONE',  ( 0.000000000000000000, 1.000000000000000000, 0.000000000000000000 ) ) ;
#268 = DIRECTION ( 'NONE',  ( -0.000000000000000000, -1.000000000000000000, -0.000000000000000000 ) ) ;
#269 = AXIS2_PLACEMENT_3D ( 'NONE', #164, #222, #156 ) ;
#270 = EDGE_CURVE ( 'NONE', #229, #98, #12, .T. ) ;
#271 = CARTESIAN_POINT ( 'NONE',  ( 0.000000000000000000, 1.000000000000000000, 0.000000000000000000 ) ) ;
#272 = CARTESIAN_POINT ( 'NONE',  ( 8.266365894244634333E-16, 0.000000000000000000, 6.750000000000000000 ) ) ;
#273 =( GEOMETRIC_REPRESENTATION_CONTEXT ( 3 ) GLOBAL_UNCERTAINTY_ASSIGNED_CONTEXT ( ( #169 ) ) GLOBAL_UNIT_ASSIGNED_CONTEXT ( ( #9, #103, #64 ) ) REPRESENTATION_CONTEXT ( 'NONE', 'WORKASPACE' ) );
#274 = STYLED_ITEM ( 'NONE', ( #284 ), #126 ) ;
#275 = SURFACE_STYLE_FILL_AREA ( #219 ) ;
#276 = DIRECTION ( 'NONE',  ( -0.000000000000000000, -1.000000000000000000, -0.000000000000000000 ) ) ;
#277 = CARTESIAN_POINT ( 'NONE',  ( 0.000000000000000000, 0.000000000000000000, 0.000000000000000000 ) ) ;
#278 =( GEOMETRIC_REPRESENTATION_CONTEXT ( 3 ) GLOBAL_UNCERTAINTY_ASSIGNED_CONTEXT ( ( #42 ) ) GLOBAL_UNIT_ASSIGNED_CONTEXT ( ( #56, #114, #167 ) ) REPRESENTATION_CONTEXT ( 'NONE', 'WORKASPACE' ) );
#279 =( GEOMETRIC_REPRESENTATION_CONTEXT ( 3 ) GLOBAL_UNCERTAINTY_ASSIGNED_CONTEXT ( ( #68 ) ) GLOBAL_UNIT_ASSIGNED_CONTEXT ( ( #10, #224, #133 ) ) REPRESENTATION_CONTEXT ( 'NONE', 'WORKASPACE' ) );
#280 = FILL_AREA_STYLE_COLOUR ( '', #190 ) ;
#281 = ORIENTED_EDGE ( 'NONE', *, *, #154, .F. ) ;
#282 = CARTESIAN_POINT ( 'NONE',  ( 0.000000000000000000, 0.000000000000000000, 0.000000000000000000 ) ) ;
#283 = AXIS2_PLACEMENT_3D ( 'NONE', #267, #119, #216 ) ;
#284 = PRESENTATION_STYLE_ASSIGNMENT (( #225 ) ) ;
#285 = PRESENTATION_LAYER_ASSIGNMENT (  '', '', ( #76 ) ) ;
#286 = SURFACE_STYLE_USAGE ( .BOTH. , #163 ) ;
#287 = FACE_OUTER_BOUND ( 'NONE', #140, .T. ) ;
#288 = FACE_BOUND ( 'NONE', #6, .T. ) ;
#289 = APPLICATION_PROTOCOL_DEFINITION ( 'draft international standard', 'automotive_design', 1998, #43 ) ;
#290 = FILL_AREA_STYLE_COLOUR ( '', #128 ) ;
#291 = COLOUR_RGB ( '',0.6509803921568627638, 0.6196078431372549211, 0.5882352941176470784 ) ;
#292 = CIRCLE ( 'NONE', #151, 6.750000000000000000 ) ;
#293 = ORIENTED_EDGE ( 'NONE', *, *, #72, .F. ) ;
#294 = FILL_AREA_STYLE ('',( #290 ) ) ;
#295 = APPLICATION_CONTEXT ( 'automotive_design' ) ;
#296 = DIRECTION ( 'NONE',  ( 0.000000000000000000, 0.000000000000000000, 1.000000000000000000 ) ) ;
#297 = COLOUR_RGB ( '',0.6509803921568627638, 0.6196078431372549211, 0.5882352941176470784 ) ;
#298 = COLOUR_RGB ( '',0.7921568627450980005, 0.8196078431372548767, 0.9333333333333333481 ) ;
#299 = CARTESIAN_POINT ( 'NONE',  ( 8.266365894244634333E-16, 1.000000000000000000, 6.750000000000000000 ) ) ;
#300 = PRODUCT_DEFINITION ( 'UNKNOWN', '', #124, #86 ) ;
#301 = FACE_OUTER_BOUND ( 'NONE', #28, .T. ) ;
#302 =( GEOMETRIC_REPRESENTATION_CONTEXT ( 3 ) GLOBAL_UNCERTAINTY_ASSIGNED_CONTEXT ( ( #89 ) ) GLOBAL_UNIT_ASSIGNED_CONTEXT ( ( #184, #172, #107 ) ) REPRESENTATION_CONTEXT ( 'NONE', 'WORKASPACE' ) );
#303 =( LENGTH_UNIT ( ) NAMED_UNIT ( * ) SI_UNIT ( .MILLI., .METRE. ) );
#304 = SURFACE_SIDE_STYLE ('',( #135 ) ) ;
ENDSEC;
END-ISO-10303-21;
