ISO-10303-21;
HEADER;
FILE_DESCRIPTION(('STEP AP203'),'1');
FILE_NAME('FIXE08E2875.stp','2023-10-03T10:02:13',(' '),(' '),'Spatial InterOp 3D',' ',' ');
FILE_SCHEMA(('CONFIG_CONTROL_DESIGN'));
ENDSEC;
DATA;
#1=DESIGN_CONTEXT('',#67,'design');
#2=APPLICATION_PROTOCOL_DEFINITION('INTERNATIONAL STANDARD','config_control_design',1994,#67);
#3=PRODUCT_CATEGORY_RELATIONSHIP('NONE','NONE',#68,#69);
#4=DATE_AND_TIME(#70,#71);
#5=DATE_TIME_ROLE('creation_date');
#6=DATE_TIME_ROLE('classification_date');
#7=PERSON_AND_ORGANIZATION_ROLE('creator');
#8=PERSON_AND_ORGANIZATION_ROLE('design_supplier');
#9=PERSON_AND_ORGANIZATION_ROLE('classification_officer');
#10=PERSON_AND_ORGANIZATION_ROLE('design_owner');
#11=APPROVAL_PERSON_ORGANIZATION(#72,#73,#74);
#12=APPROVAL_DATE_TIME(#4,#73);
#13=CC_DESIGN_APPROVAL(#73,(#75,#76,#77));
#14=CC_DESIGN_DATE_AND_TIME_ASSIGNMENT(#4,#5,(#77));
#15=CC_DESIGN_DATE_AND_TIME_ASSIGNMENT(#4,#6,(#75));
#16=CC_DESIGN_PERSON_AND_ORGANIZATION_ASSIGNMENT(#72,#10,(#78));
#17=CC_DESIGN_PERSON_AND_ORGANIZATION_ASSIGNMENT(#72,#7,(#77));
#18=CC_DESIGN_PERSON_AND_ORGANIZATION_ASSIGNMENT(#72,#7,(#76));
#19=CC_DESIGN_PERSON_AND_ORGANIZATION_ASSIGNMENT(#72,#8,(#76));
#20=CC_DESIGN_SECURITY_CLASSIFICATION(#75,(#76));
#21=CC_DESIGN_PERSON_AND_ORGANIZATION_ASSIGNMENT(#72,#9,(#75));
#22=SHAPE_DEFINITION_REPRESENTATION(#79,#80);
#23= (GEOMETRIC_REPRESENTATION_CONTEXT(3)GLOBAL_UNCERTAINTY_ASSIGNED_CONTEXT((#83))GLOBAL_UNIT_ASSIGNED_CONTEXT((#85,#86,#87))REPRESENTATION_CONTEXT('NONE','WORKSPACE'));
#24=PROPERTY_DEFINITION_REPRESENTATION(#89,#90);
#25=GENERAL_PROPERTY_ASSOCIATION('','',#91,#89);
#26=PROPERTY_DEFINITION_REPRESENTATION(#92,#93);
#27=GENERAL_PROPERTY_ASSOCIATION('','',#94,#92);
#28=PROPERTY_DEFINITION_REPRESENTATION(#95,#96);
#29=GENERAL_PROPERTY_ASSOCIATION('','',#97,#95);
#30=PROPERTY_DEFINITION_REPRESENTATION(#98,#99);
#31=GENERAL_PROPERTY_ASSOCIATION('','',#100,#98);
#32=PROPERTY_DEFINITION_REPRESENTATION(#101,#102);
#33=GENERAL_PROPERTY_ASSOCIATION('','',#103,#101);
#34=PROPERTY_DEFINITION_REPRESENTATION(#104,#105);
#35=GENERAL_PROPERTY_ASSOCIATION('','',#106,#104);
#36=PROPERTY_DEFINITION_REPRESENTATION(#107,#108);
#37=GENERAL_PROPERTY_ASSOCIATION('','',#109,#107);
#38=PROPERTY_DEFINITION_REPRESENTATION(#110,#111);
#39=GENERAL_PROPERTY_ASSOCIATION('','',#112,#110);
#40=PROPERTY_DEFINITION_REPRESENTATION(#113,#114);
#41=GENERAL_PROPERTY_ASSOCIATION('','',#115,#113);
#42=PROPERTY_DEFINITION_REPRESENTATION(#116,#117);
#43=GENERAL_PROPERTY_ASSOCIATION('','',#118,#116);
#44=PROPERTY_DEFINITION_REPRESENTATION(#119,#120);
#45=GENERAL_PROPERTY_ASSOCIATION('','',#121,#119);
#46=PROPERTY_DEFINITION_REPRESENTATION(#122,#123);
#47=GENERAL_PROPERTY_ASSOCIATION('','',#124,#122);
#48=PROPERTY_DEFINITION_REPRESENTATION(#125,#126);
#49=GENERAL_PROPERTY_ASSOCIATION('','',#127,#125);
#50=PROPERTY_DEFINITION_REPRESENTATION(#128,#129);
#51=GENERAL_PROPERTY_ASSOCIATION('','',#130,#128);
#52=PROPERTY_DEFINITION_REPRESENTATION(#131,#132);
#53=GENERAL_PROPERTY_ASSOCIATION('','',#133,#131);
#54=PROPERTY_DEFINITION_REPRESENTATION(#134,#135);
#55=GENERAL_PROPERTY_ASSOCIATION('','',#136,#134);
#56=PROPERTY_DEFINITION_REPRESENTATION(#137,#138);
#57=GENERAL_PROPERTY_ASSOCIATION('','',#139,#137);
#58=PROPERTY_DEFINITION_REPRESENTATION(#140,#141);
#59=GENERAL_PROPERTY_ASSOCIATION('','',#142,#140);
#60=PROPERTY_DEFINITION_REPRESENTATION(#143,#144);
#61=GENERAL_PROPERTY_ASSOCIATION('','',#145,#143);
#62=PROPERTY_DEFINITION_REPRESENTATION(#146,#147);
#63=GENERAL_PROPERTY_ASSOCIATION('','',#148,#146);
#67=APPLICATION_CONTEXT('CONFIGURATION CONTROLLED 3D DESIGNS OF MECHANICAL PARTS AND ASSEMBLIES');
#68=PRODUCT_CATEGORY('part','NONE');
#69=PRODUCT_RELATED_PRODUCT_CATEGORY('detail',' ',(#78));
#70=CALENDAR_DATE(2023,3,9);
#71=LOCAL_TIME(12,2,13.0,#149);
#72=PERSON_AND_ORGANIZATION(#150,#151);
#73=APPROVAL(#152,'SOLID MODEL');
#74=APPROVAL_ROLE('APPROVED');
#75=SECURITY_CLASSIFICATION('','',#153);
#76=PRODUCT_DEFINITION_FORMATION_WITH_SPECIFIED_SOURCE('B','NONE',#78,.NOT_KNOWN.);
#77=PRODUCT_DEFINITION('','NONE',#76,#1);
#78=PRODUCT('Ecrou 8 Zn M3 - 1/4 de tour \X2\00E0\X0\ ergots','%#@![CATALOGUE - PREFIXE=FIXE][CATALOGUE - GAMME=08][CATALOGUE - LETTRE=E][CATALOGUE - ID=2875]','Ecrou 8 Zn M3 - 1/4 de tour \X2\00E0\X0\ ergots',(#154));
#79=PRODUCT_DEFINITION_SHAPE('NONE','NONE',#77);
#80=ADVANCED_BREP_SHAPE_REPRESENTATION('1',(#155,#156),#23);
#83=UNCERTAINTY_MEASURE_WITH_UNIT(LENGTH_MEASURE(0.001),#85,'','');
#85= (CONVERSION_BASED_UNIT('MILLIMETRE',#159)LENGTH_UNIT()NAMED_UNIT(#162));
#86= (NAMED_UNIT(#164)PLANE_ANGLE_UNIT()SI_UNIT($,.RADIAN.));
#87= (NAMED_UNIT(#164)SOLID_ANGLE_UNIT()SI_UNIT($,.STERADIAN.));
#89=PROPERTY_DEFINITION('PdmObjectId','',#77);
#90=REPRESENTATION('',(#170),#23);
#91=GENERAL_PROPERTY('','37_a196914b-2902-4653-bb58-d967e9033e40&5_508_1_0','');
#92=PROPERTY_DEFINITION('Type de production hellomoov','',#77);
#93=REPRESENTATION('',(#171),#23);
#94=GENERAL_PROPERTY('','pi\X2\00E8\X0\ce du stock','');
#95=PROPERTY_DEFINITION('ETAT_SURFACE','',#77);
#96=REPRESENTATION('',(#172),#23);
#97=GENERAL_PROPERTY('','-','');
#98=PROPERTY_DEFINITION('DESIGNATION_ENG','',#77);
#99=REPRESENTATION('',(#173),#23);
#100=GENERAL_PROPERTY('','-','');
#101=PROPERTY_DEFINITION('CODE_ELCOM','',#77);
#102=REPRESENTATION('',(#174),#23);
#103=GENERAL_PROPERTY('','-','');
#104=PROPERTY_DEFINITION('TRAITEMENT','',#77);
#105=REPRESENTATION('',(#175),#23);
#106=GENERAL_PROPERTY('','Non sp\X2\00E9\X0\cifi\X2\00E9\X0\','');
#107=PROPERTY_DEFINITION('TOLERANCES_GENERALES','',#77);
#108=REPRESENTATION('',(#176),#23);
#109=GENERAL_PROPERTY('','\X2\00E0\X0\ d\X2\00E9\X0\finir','');
#110=PROPERTY_DEFINITION('TOLERANCES_BORDS','',#77);
#111=REPRESENTATION('',(#177),#23);
#112=GENERAL_PROPERTY('','ISO 13715','');
#113=PROPERTY_DEFINITION('CODE_TRANSEPT','',#77);
#114=REPRESENTATION('',(#178),#23);
#115=GENERAL_PROPERTY('','NS8ZNM4R','');
#116=PROPERTY_DEFINITION('FOURNISSEUR2','',#77);
#117=REPRESENTATION('',(#179),#23);
#118=GENERAL_PROPERTY('','\X2\00E0\X0\ d\X2\00E9\X0\finir','');
#119=PROPERTY_DEFINITION('FOURNISSEUR','',#77);
#120=REPRESENTATION('',(#180),#23);
#121=GENERAL_PROPERTY('','\X2\00E0\X0\ d\X2\00E9\X0\finir','');
#122=PROPERTY_DEFINITION('CATALOGUE - LETTRE','',#77);
#123=REPRESENTATION('',(#181),#23);
#124=GENERAL_PROPERTY('','E','');
#125=PROPERTY_DEFINITION('CATALOGUE - PREFIXE','',#77);
#126=REPRESENTATION('',(#182),#23);
#127=GENERAL_PROPERTY('','FIXE','');
#128=PROPERTY_DEFINITION('CATALOGUE - GAMME','',#77);
#129=REPRESENTATION('',(#183),#23);
#130=GENERAL_PROPERTY('','08','');
#131=PROPERTY_DEFINITION('CATALOGUE - ID','',#77);
#132=REPRESENTATION('',(#184),#23);
#133=GENERAL_PROPERTY('','2875','');
#134=PROPERTY_DEFINITION('D\X2\00E9\X0\signation du mat\X2\00E9\X0\riau','',#77);
#135=REPRESENTATION('',(#185),#23);
#136=GENERAL_PROPERTY('','Steel','');
#137=PROPERTY_DEFINITION('Nom du mat\X2\00E9\X0\riau','',#77);
#138=REPRESENTATION('',(#186),#23);
#139=GENERAL_PROPERTY('','Steel','');
#140=PROPERTY_DEFINITION('Manufacturer','',#77);
#141=REPRESENTATION('',(#187),#23);
#142=GENERAL_PROPERTY('','HELLOMOOV','');
#143=PROPERTY_DEFINITION('CreationDate','',#77);
#144=REPRESENTATION('',(#188),#23);
#145=GENERAL_PROPERTY('','22/08/2022 19:06:18','');
#146=PROPERTY_DEFINITION('Minor Revision','',#77);
#147=REPRESENTATION('',(#189),#23);
#148=GENERAL_PROPERTY('','0','');
#149=COORDINATED_UNIVERSAL_TIME_OFFSET(1,0,.AHEAD.);
#150=PERSON('','UNSPECIFIED',$,$,$,$);
#151=ORGANIZATION('UNSPECIFIED','UNSPECIFIED','UNSPECIFIED');
#152=APPROVAL_STATUS('approved');
#153=SECURITY_CLASSIFICATION_LEVEL('unclassified');
#154=MECHANICAL_CONTEXT('',#67,'mechanical');
#155=MANIFOLD_SOLID_BREP('1',#190);
#156=AXIS2_PLACEMENT_3D('',#191,#192,#193);
#159=LENGTH_MEASURE_WITH_UNIT(LENGTH_MEASURE(1.0),#194);
#162=DIMENSIONAL_EXPONENTS(1.0,0.0,0.0,0.0,0.0,0.0,0.0);
#164=DIMENSIONAL_EXPONENTS(0.0,0.0,0.0,0.0,0.0,0.0,0.0);
#170=DESCRIPTIVE_REPRESENTATION_ITEM('','37_a196914b-2902-4653-bb58-d967e9033e40&5_508_1_0');
#171=DESCRIPTIVE_REPRESENTATION_ITEM('','pi\X2\00E8\X0\ce du stock');
#172=DESCRIPTIVE_REPRESENTATION_ITEM('','-');
#173=DESCRIPTIVE_REPRESENTATION_ITEM('','-');
#174=DESCRIPTIVE_REPRESENTATION_ITEM('','-');
#175=DESCRIPTIVE_REPRESENTATION_ITEM('','Non sp\X2\00E9\X0\cifi\X2\00E9\X0\');
#176=DESCRIPTIVE_REPRESENTATION_ITEM('','\X2\00E0\X0\ d\X2\00E9\X0\finir');
#177=DESCRIPTIVE_REPRESENTATION_ITEM('','ISO 13715');
#178=DESCRIPTIVE_REPRESENTATION_ITEM('','NS8ZNM4R');
#179=DESCRIPTIVE_REPRESENTATION_ITEM('','\X2\00E0\X0\ d\X2\00E9\X0\finir');
#180=DESCRIPTIVE_REPRESENTATION_ITEM('','\X2\00E0\X0\ d\X2\00E9\X0\finir');
#181=DESCRIPTIVE_REPRESENTATION_ITEM('','E');
#182=DESCRIPTIVE_REPRESENTATION_ITEM('','FIXE');
#183=DESCRIPTIVE_REPRESENTATION_ITEM('','08');
#184=DESCRIPTIVE_REPRESENTATION_ITEM('','2875');
#185=DESCRIPTIVE_REPRESENTATION_ITEM('','Steel');
#186=DESCRIPTIVE_REPRESENTATION_ITEM('','Steel');
#187=DESCRIPTIVE_REPRESENTATION_ITEM('','HELLOMOOV');
#188=DESCRIPTIVE_REPRESENTATION_ITEM('','22/08/2022 19:06:18');
#189=DESCRIPTIVE_REPRESENTATION_ITEM('','0');
#190=CLOSED_SHELL('',(#195,#196,#197,#198,#199,#200,#201,#202,#203,#204,#205,#206,#207,#208,#209));
#191=CARTESIAN_POINT('',(0.0,0.0,0.0));
#192=DIRECTION('',(0.0,0.0,1.0));
#193=DIRECTION('',(1.0,0.0,0.0));
#194= (NAMED_UNIT(#162)LENGTH_UNIT()SI_UNIT(.MILLI.,.METRE.));
#195=ADVANCED_FACE('',(#211),#212,.T.);
#196=ADVANCED_FACE('',(#213),#214,.F.);
#197=ADVANCED_FACE('',(#215),#216,.T.);
#198=ADVANCED_FACE('',(#217,#218),#219,.F.);
#199=ADVANCED_FACE('',(#220),#221,.T.);
#200=ADVANCED_FACE('',(#222),#223,.F.);
#201=ADVANCED_FACE('',(#224),#225,.T.);
#202=ADVANCED_FACE('',(#226,#227),#228,.T.);
#203=ADVANCED_FACE('',(#229),#230,.T.);
#204=ADVANCED_FACE('',(#231),#232,.F.);
#205=ADVANCED_FACE('',(#233),#234,.F.);
#206=ADVANCED_FACE('',(#235),#236,.F.);
#207=ADVANCED_FACE('',(#237),#238,.T.);
#208=ADVANCED_FACE('',(#239),#240,.F.);
#209=ADVANCED_FACE('',(#241,#242),#243,.F.);
#211=FACE_OUTER_BOUND('',#244,.T.);
#212=PLANE('',#245);
#213=FACE_OUTER_BOUND('',#246,.T.);
#214=PLANE('',#247);
#215=FACE_OUTER_BOUND('',#248,.T.);
#216=PLANE('',#249);
#217=FACE_BOUND('',#250,.T.);
#218=FACE_OUTER_BOUND('',#251,.T.);
#219=PLANE('',#252);
#220=FACE_OUTER_BOUND('',#253,.T.);
#221=PLANE('',#254);
#222=FACE_OUTER_BOUND('',#255,.T.);
#223=PLANE('',#256);
#224=FACE_OUTER_BOUND('',#257,.T.);
#225=PLANE('',#258);
#226=FACE_BOUND('',#259,.T.);
#227=FACE_OUTER_BOUND('',#260,.T.);
#228=PLANE('',#261);
#229=FACE_OUTER_BOUND('',#262,.T.);
#230=PLANE('',#263);
#231=FACE_OUTER_BOUND('',#264,.T.);
#232=PLANE('',#265);
#233=FACE_OUTER_BOUND('',#266,.T.);
#234=PLANE('',#267);
#235=FACE_OUTER_BOUND('',#268,.T.);
#236=PLANE('',#269);
#237=FACE_OUTER_BOUND('',#270,.T.);
#238=PLANE('',#271);
#239=FACE_OUTER_BOUND('',#272,.T.);
#240=PLANE('',#273);
#241=FACE_OUTER_BOUND('',#274,.T.);
#242=FACE_OUTER_BOUND('',#275,.T.);
#243=CYLINDRICAL_SURFACE('',#276,1.25);
#244=EDGE_LOOP('',(#277,#278,#279,#280));
#245=AXIS2_PLACEMENT_3D('',#281,#282,#283);
#246=EDGE_LOOP('',(#284,#285,#286,#287,#288,#289,#290,#291,#292));
#247=AXIS2_PLACEMENT_3D('',#293,#294,#295);
#248=EDGE_LOOP('',(#296,#297,#298,#299));
#249=AXIS2_PLACEMENT_3D('',#300,#301,#302);
#250=EDGE_LOOP('',(#303));
#251=EDGE_LOOP('',(#304,#305,#306,#307));
#252=AXIS2_PLACEMENT_3D('',#308,#309,#310);
#253=EDGE_LOOP('',(#311,#312,#313,#314));
#254=AXIS2_PLACEMENT_3D('',#315,#316,#317);
#255=EDGE_LOOP('',(#318,#319,#320,#321));
#256=AXIS2_PLACEMENT_3D('',#322,#323,#324);
#257=EDGE_LOOP('',(#325,#326,#327,#328,#329));
#258=AXIS2_PLACEMENT_3D('',#330,#331,#332);
#259=EDGE_LOOP('',(#333));
#260=EDGE_LOOP('',(#334,#335,#336,#337));
#261=AXIS2_PLACEMENT_3D('',#338,#339,#340);
#262=EDGE_LOOP('',(#341,#342,#343,#344,#345));
#263=AXIS2_PLACEMENT_3D('',#346,#347,#348);
#264=EDGE_LOOP('',(#349,#350,#351,#352));
#265=AXIS2_PLACEMENT_3D('',#353,#354,#355);
#266=EDGE_LOOP('',(#356,#357,#358,#359));
#267=AXIS2_PLACEMENT_3D('',#360,#361,#362);
#268=EDGE_LOOP('',(#363,#364,#365,#366,#367,#368,#369,#370,#371));
#269=AXIS2_PLACEMENT_3D('',#372,#373,#374);
#270=EDGE_LOOP('',(#375,#376,#377,#378));
#271=AXIS2_PLACEMENT_3D('',#379,#380,#381);
#272=EDGE_LOOP('',(#382,#383,#384,#385));
#273=AXIS2_PLACEMENT_3D('',#386,#387,#388);
#274=EDGE_LOOP('',(#389));
#275=EDGE_LOOP('',(#390));
#276=AXIS2_PLACEMENT_3D('',#391,#392,#393);
#277=ORIENTED_EDGE('',*,*,#394,.T.);
#278=ORIENTED_EDGE('',*,*,#395,.T.);
#279=ORIENTED_EDGE('',*,*,#396,.T.);
#280=ORIENTED_EDGE('',*,*,#397,.T.);
#281=CARTESIAN_POINT('',(12.0,-7.0,1.3010426069826E-15));
#282=DIRECTION('',(-7.35516008050633E-17,5.24931739371724E-17,1.0));
#283=DIRECTION('',(1.0,7.54436079429035E-34,7.35516008050633E-17));
#284=ORIENTED_EDGE('',*,*,#398,.F.);
#285=ORIENTED_EDGE('',*,*,#399,.F.);
#286=ORIENTED_EDGE('',*,*,#400,.F.);
#287=ORIENTED_EDGE('',*,*,#401,.F.);
#288=ORIENTED_EDGE('',*,*,#402,.F.);
#289=ORIENTED_EDGE('',*,*,#403,.F.);
#290=ORIENTED_EDGE('',*,*,#404,.F.);
#291=ORIENTED_EDGE('',*,*,#405,.T.);
#292=ORIENTED_EDGE('',*,*,#394,.F.);
#293=CARTESIAN_POINT('',(1.75,-7.0,-5.4));
#294=DIRECTION('',(0.707106781186547,0.707106781186547,1.48905564394066E-17));
#295=DIRECTION('',(-0.707106781186548,0.707106781186548,-8.65927457071935E-17));
#296=ORIENTED_EDGE('',*,*,#398,.T.);
#297=ORIENTED_EDGE('',*,*,#397,.F.);
#298=ORIENTED_EDGE('',*,*,#406,.T.);
#299=ORIENTED_EDGE('',*,*,#407,.T.);
#300=CARTESIAN_POINT('',(12.0,-4.25,1.3010426069826E-15));
#301=DIRECTION('',(-1.11022302462516E-16,-1.0,5.24931739371724E-17));
#302=DIRECTION('',(1.0,-1.11022302462516E-16,6.12303176911189E-17));
#303=ORIENTED_EDGE('',*,*,#408,.F.);
#304=ORIENTED_EDGE('',*,*,#409,.F.);
#305=ORIENTED_EDGE('',*,*,#410,.F.);
#306=ORIENTED_EDGE('',*,*,#399,.T.);
#307=ORIENTED_EDGE('',*,*,#407,.F.);
#308=CARTESIAN_POINT('',(0.0,0.0,2.9));
#309=DIRECTION('',(7.35516008050633E-17,-5.24931739371724E-17,-1.0));
#310=DIRECTION('',(-1.0,-7.54436079429035E-34,-7.35516008050633E-17));
#311=ORIENTED_EDGE('',*,*,#400,.T.);
#312=ORIENTED_EDGE('',*,*,#410,.T.);
#313=ORIENTED_EDGE('',*,*,#411,.T.);
#314=ORIENTED_EDGE('',*,*,#412,.T.);
#315=CARTESIAN_POINT('',(12.0,4.25,2.9));
#316=DIRECTION('',(1.11022302462516E-16,1.0,-5.24931739371724E-17));
#317=DIRECTION('',(-1.0,1.11022302462516E-16,-6.12303176911189E-17));
#318=ORIENTED_EDGE('',*,*,#413,.T.);
#319=ORIENTED_EDGE('',*,*,#414,.F.);
#320=ORIENTED_EDGE('',*,*,#401,.T.);
#321=ORIENTED_EDGE('',*,*,#415,.F.);
#322=CARTESIAN_POINT('',(-9.5,4.25,-5.4));
#323=DIRECTION('',(1.0,-1.11022302462516E-16,7.35516008050633E-17));
#324=DIRECTION('',(1.11022302462516E-16,1.0,-6.12303176911189E-17));
#325=ORIENTED_EDGE('',*,*,#416,.T.);
#326=ORIENTED_EDGE('',*,*,#402,.T.);
#327=ORIENTED_EDGE('',*,*,#414,.T.);
#328=ORIENTED_EDGE('',*,*,#417,.T.);
#329=ORIENTED_EDGE('',*,*,#418,.T.);
#330=CARTESIAN_POINT('',(8.63831180901486E-16,2.282,-5.4));
#331=DIRECTION('',(1.29510649149767E-16,0.682031011256944,-0.731323252525059));
#332=DIRECTION('',(-4.17609754944577E-17,0.731323252525059,0.682031011256944));
#333=ORIENTED_EDGE('',*,*,#419,.T.);
#334=ORIENTED_EDGE('',*,*,#420,.T.);
#335=ORIENTED_EDGE('',*,*,#421,.T.);
#336=ORIENTED_EDGE('',*,*,#403,.T.);
#337=ORIENTED_EDGE('',*,*,#416,.F.);
#338=CARTESIAN_POINT('',(6.10478286682025E-16,-4.35693343678531E-16,-5.4));
#339=DIRECTION('',(7.35516008050633E-17,-5.24931739371724E-17,-1.0));
#340=DIRECTION('',(-1.0,-7.54436079429035E-34,-7.35516008050633E-17));
#341=ORIENTED_EDGE('',*,*,#421,.F.);
#342=ORIENTED_EDGE('',*,*,#422,.T.);
#343=ORIENTED_EDGE('',*,*,#423,.T.);
#344=ORIENTED_EDGE('',*,*,#424,.T.);
#345=ORIENTED_EDGE('',*,*,#404,.T.);
#346=CARTESIAN_POINT('',(3.57125392462564E-16,-2.282,-5.4));
#347=DIRECTION('',(-2.19306572914002E-17,-0.682031011256944,-0.731323252525059));
#348=DIRECTION('',(4.17609754944577E-17,0.731323252525059,-0.682031011256944));
#349=ORIENTED_EDGE('',*,*,#405,.F.);
#350=ORIENTED_EDGE('',*,*,#424,.F.);
#351=ORIENTED_EDGE('',*,*,#425,.F.);
#352=ORIENTED_EDGE('',*,*,#395,.F.);
#353=CARTESIAN_POINT('',(9.5,-7.0,-5.4));
#354=DIRECTION('',(1.11022302462516E-16,1.0,-5.24931739371724E-17));
#355=DIRECTION('',(-1.0,1.11022302462516E-16,-6.12303176911189E-17));
#356=ORIENTED_EDGE('',*,*,#425,.T.);
#357=ORIENTED_EDGE('',*,*,#423,.F.);
#358=ORIENTED_EDGE('',*,*,#426,.F.);
#359=ORIENTED_EDGE('',*,*,#396,.F.);
#360=CARTESIAN_POINT('',(9.5,-4.25,-5.4));
#361=DIRECTION('',(-1.0,1.11022302462516E-16,-7.35516008050633E-17));
#362=DIRECTION('',(-1.11022302462516E-16,-1.0,6.12303176911189E-17));
#363=ORIENTED_EDGE('',*,*,#409,.T.);
#364=ORIENTED_EDGE('',*,*,#406,.F.);
#365=ORIENTED_EDGE('',*,*,#426,.T.);
#366=ORIENTED_EDGE('',*,*,#422,.F.);
#367=ORIENTED_EDGE('',*,*,#420,.F.);
#368=ORIENTED_EDGE('',*,*,#418,.F.);
#369=ORIENTED_EDGE('',*,*,#427,.F.);
#370=ORIENTED_EDGE('',*,*,#428,.F.);
#371=ORIENTED_EDGE('',*,*,#411,.F.);
#372=CARTESIAN_POINT('',(-1.75,7.0,-5.4));
#373=DIRECTION('',(-0.707106781186547,-0.707106781186547,-1.48905564394066E-17));
#374=DIRECTION('',(0.707106781186548,-0.707106781186548,8.65927457071935E-17));
#375=ORIENTED_EDGE('',*,*,#415,.T.);
#376=ORIENTED_EDGE('',*,*,#412,.F.);
#377=ORIENTED_EDGE('',*,*,#428,.T.);
#378=ORIENTED_EDGE('',*,*,#429,.T.);
#379=CARTESIAN_POINT('',(12.0,4.25,4.33680868994202E-16));
#380=DIRECTION('',(-7.35516008050633E-17,5.24931739371724E-17,1.0));
#381=DIRECTION('',(1.0,7.54436079429035E-34,7.35516008050633E-17));
#382=ORIENTED_EDGE('',*,*,#427,.T.);
#383=ORIENTED_EDGE('',*,*,#417,.F.);
#384=ORIENTED_EDGE('',*,*,#413,.F.);
#385=ORIENTED_EDGE('',*,*,#429,.F.);
#386=CARTESIAN_POINT('',(-9.5,7.0,-5.4));
#387=DIRECTION('',(-1.11022302462516E-16,-1.0,5.24931739371724E-17));
#388=DIRECTION('',(1.0,-1.11022302462516E-16,6.12303176911189E-17));
#389=ORIENTED_EDGE('',*,*,#419,.F.);
#390=ORIENTED_EDGE('',*,*,#408,.T.);
#391=CARTESIAN_POINT('',(0.0,0.0,0.0));
#392=DIRECTION('',(0.0,0.0,-1.0));
#393=DIRECTION('',(1.0,0.0,0.0));
#394=EDGE_CURVE('',#430,#431,#432,.F.);
#395=EDGE_CURVE('',#431,#433,#434,.T.);
#396=EDGE_CURVE('',#433,#435,#436,.T.);
#397=EDGE_CURVE('',#435,#430,#437,.F.);
#398=EDGE_CURVE('',#438,#430,#439,.F.);
#399=EDGE_CURVE('',#440,#438,#441,.F.);
#400=EDGE_CURVE('',#442,#440,#443,.T.);
#401=EDGE_CURVE('',#444,#442,#445,.T.);
#402=EDGE_CURVE('',#446,#444,#447,.T.);
#403=EDGE_CURVE('',#448,#446,#449,.T.);
#404=EDGE_CURVE('',#450,#448,#451,.T.);
#405=EDGE_CURVE('',#450,#431,#452,.T.);
#406=EDGE_CURVE('',#435,#453,#454,.T.);
#407=EDGE_CURVE('',#453,#438,#455,.F.);
#408=EDGE_CURVE('',#456,#456,#457,.F.);
#409=EDGE_CURVE('',#458,#453,#459,.T.);
#410=EDGE_CURVE('',#440,#458,#460,.F.);
#411=EDGE_CURVE('',#458,#461,#462,.F.);
#412=EDGE_CURVE('',#461,#442,#463,.T.);
#413=EDGE_CURVE('',#464,#465,#466,.F.);
#414=EDGE_CURVE('',#444,#465,#467,.T.);
#415=EDGE_CURVE('',#464,#442,#468,.F.);
#416=EDGE_CURVE('',#469,#446,#470,.F.);
#417=EDGE_CURVE('',#465,#471,#472,.T.);
#418=EDGE_CURVE('',#471,#469,#473,.T.);
#419=EDGE_CURVE('',#474,#474,#475,.F.);
#420=EDGE_CURVE('',#469,#476,#477,.T.);
#421=EDGE_CURVE('',#476,#448,#478,.T.);
#422=EDGE_CURVE('',#476,#479,#480,.T.);
#423=EDGE_CURVE('',#479,#481,#482,.F.);
#424=EDGE_CURVE('',#481,#450,#483,.F.);
#425=EDGE_CURVE('',#433,#481,#484,.F.);
#426=EDGE_CURVE('',#435,#479,#485,.F.);
#427=EDGE_CURVE('',#486,#471,#487,.F.);
#428=EDGE_CURVE('',#461,#486,#488,.F.);
#429=EDGE_CURVE('',#486,#464,#489,.F.);
#430=VERTEX_POINT('',#490);
#431=VERTEX_POINT('',#491);
#432=LINE('',#492,#493);
#433=VERTEX_POINT('',#494);
#434=LINE('',#495,#496);
#435=VERTEX_POINT('',#497);
#436=LINE('',#498,#499);
#437=LINE('',#500,#501);
#438=VERTEX_POINT('',#502);
#439=LINE('',#503,#504);
#440=VERTEX_POINT('',#505);
#441=LINE('',#506,#507);
#442=VERTEX_POINT('',#508);
#443=LINE('',#509,#510);
#444=VERTEX_POINT('',#511);
#445=LINE('',#512,#513);
#446=VERTEX_POINT('',#514);
#447=LINE('',#515,#516);
#448=VERTEX_POINT('',#517);
#449=LINE('',#518,#519);
#450=VERTEX_POINT('',#520);
#451=LINE('',#521,#522);
#452=LINE('',#523,#524);
#453=VERTEX_POINT('',#525);
#454=LINE('',#526,#527);
#455=LINE('',#528,#529);
#456=VERTEX_POINT('',#530);
#457=CIRCLE('',#531,1.25);
#458=VERTEX_POINT('',#532);
#459=LINE('',#533,#534);
#460=LINE('',#535,#536);
#461=VERTEX_POINT('',#537);
#462=LINE('',#538,#539);
#463=LINE('',#540,#541);
#464=VERTEX_POINT('',#542);
#465=VERTEX_POINT('',#543);
#466=LINE('',#544,#545);
#467=LINE('',#546,#547);
#468=LINE('',#548,#549);
#469=VERTEX_POINT('',#550);
#470=LINE('',#551,#552);
#471=VERTEX_POINT('',#553);
#472=LINE('',#554,#555);
#473=LINE('',#556,#557);
#474=VERTEX_POINT('',#558);
#475=CIRCLE('',#559,1.25);
#476=VERTEX_POINT('',#560);
#477=LINE('',#561,#562);
#478=LINE('',#563,#564);
#479=VERTEX_POINT('',#565);
#480=LINE('',#566,#567);
#481=VERTEX_POINT('',#568);
#482=LINE('',#569,#570);
#483=LINE('',#571,#572);
#484=LINE('',#573,#574);
#485=LINE('',#575,#576);
#486=VERTEX_POINT('',#577);
#487=LINE('',#578,#579);
#488=LINE('',#580,#581);
#489=LINE('',#582,#583);
#490=CARTESIAN_POINT('',(-1.0,-4.25,4.33680868994202E-16));
#491=CARTESIAN_POINT('',(1.75,-7.0,4.33680868994202E-16));
#492=CARTESIAN_POINT('',(1.75,-7.0,4.33680868994202E-16));
#493=VECTOR('',#584,1.0);
#494=CARTESIAN_POINT('',(9.5,-7.0,8.67361737988404E-16));
#495=CARTESIAN_POINT('',(12.0,-7.0,1.3010426069826E-15));
#496=VECTOR('',#585,1.0);
#497=CARTESIAN_POINT('',(9.5,-4.25,8.67361737988404E-16));
#498=CARTESIAN_POINT('',(9.5,-7.0,8.67361737988404E-16));
#499=VECTOR('',#586,1.0);
#500=CARTESIAN_POINT('',(12.0,-4.25,1.3010426069826E-15));
#501=VECTOR('',#587,1.0);
#502=CARTESIAN_POINT('',(-1.0,-4.25,2.9));
#503=CARTESIAN_POINT('',(-1.0,-4.25,-5.4));
#504=VECTOR('',#588,1.0);
#505=CARTESIAN_POINT('',(-9.5,4.25,2.9));
#506=CARTESIAN_POINT('',(1.75,-7.0,2.9));
#507=VECTOR('',#589,1.0);
#508=CARTESIAN_POINT('',(-9.5,4.25,-8.67361737988404E-16));
#509=CARTESIAN_POINT('',(-9.5,4.25,-5.4));
#510=VECTOR('',#590,1.0);
#511=CARTESIAN_POINT('',(-9.5,4.25,-3.56464603645613));
#512=CARTESIAN_POINT('',(-9.5,4.25,-5.4));
#513=VECTOR('',#591,1.0);
#514=CARTESIAN_POINT('',(-7.532,2.282,-5.4));
#515=CARTESIAN_POINT('',(-7.532,2.282,-5.4));
#516=VECTOR('',#592,1.0);
#517=CARTESIAN_POINT('',(-2.968,-2.282,-5.4));
#518=CARTESIAN_POINT('',(1.75,-7.0,-5.4));
#519=VECTOR('',#593,1.0);
#520=CARTESIAN_POINT('',(1.75,-7.0,-1.0));
#521=CARTESIAN_POINT('',(1.75,-7.0,-1.0));
#522=VECTOR('',#594,1.0);
#523=CARTESIAN_POINT('',(1.75,-7.0,-5.4));
#524=VECTOR('',#595,1.0);
#525=CARTESIAN_POINT('',(9.5,-4.25,2.9));
#526=CARTESIAN_POINT('',(9.5,-4.25,8.67361737988404E-16));
#527=VECTOR('',#596,1.0);
#528=CARTESIAN_POINT('',(12.0,-4.25,2.9));
#529=VECTOR('',#597,1.0);
#530=CARTESIAN_POINT('',(-1.25,-3.06161699786838E-16,2.9));
#531=AXIS2_PLACEMENT_3D('',#598,#599,#600);
#532=CARTESIAN_POINT('',(1.0,4.25,2.9));
#533=CARTESIAN_POINT('',(1.0,4.25,2.9));
#534=VECTOR('',#601,1.0);
#535=CARTESIAN_POINT('',(1.32027138037016E-32,4.25,2.9));
#536=VECTOR('',#602,1.0);
#537=CARTESIAN_POINT('',(1.0,4.25,-4.33680868994202E-16));
#538=CARTESIAN_POINT('',(1.0,4.25,2.9));
#539=VECTOR('',#603,1.0);
#540=CARTESIAN_POINT('',(12.0,4.25,4.33680868994202E-16));
#541=VECTOR('',#604,1.0);
#542=CARTESIAN_POINT('',(-9.5,7.0,-8.67361737988404E-16));
#543=CARTESIAN_POINT('',(-9.5,7.0,-1.0));
#544=CARTESIAN_POINT('',(-9.5,7.0,-5.4));
#545=VECTOR('',#605,1.0);
#546=CARTESIAN_POINT('',(-9.5,4.25,-3.56464603645613));
#547=VECTOR('',#606,1.0);
#548=CARTESIAN_POINT('',(-9.5,4.25,-8.67361737988404E-16));
#549=VECTOR('',#607,1.0);
#550=CARTESIAN_POINT('',(2.968,2.282,-5.4));
#551=CARTESIAN_POINT('',(8.63831180901486E-16,2.282,-5.4));
#552=VECTOR('',#608,1.0);
#553=CARTESIAN_POINT('',(-1.75,7.0,-1.0));
#554=CARTESIAN_POINT('',(5.94417783060563E-16,7.0,-1.0));
#555=VECTOR('',#609,1.0);
#556=CARTESIAN_POINT('',(-1.75,7.0,-1.0));
#557=VECTOR('',#610,1.0);
#558=CARTESIAN_POINT('',(-1.25,-3.06161699786838E-16,-5.4));
#559=AXIS2_PLACEMENT_3D('',#611,#612,#613);
#560=CARTESIAN_POINT('',(7.532,-2.282,-5.4));
#561=CARTESIAN_POINT('',(2.968,2.282,-5.4));
#562=VECTOR('',#614,1.0);
#563=CARTESIAN_POINT('',(6.10478286682025E-16,-2.282,-5.4));
#564=VECTOR('',#615,1.0);
#565=CARTESIAN_POINT('',(9.5,-4.25,-3.56464603645613));
#566=CARTESIAN_POINT('',(7.532,-2.282,-5.4));
#567=VECTOR('',#616,1.0);
#568=CARTESIAN_POINT('',(9.5,-7.0,-1.0));
#569=CARTESIAN_POINT('',(9.5,-2.282,-5.4));
#570=VECTOR('',#617,1.0);
#571=CARTESIAN_POINT('',(8.77119946216415E-17,-7.0,-1.0));
#572=VECTOR('',#618,1.0);
#573=CARTESIAN_POINT('',(9.5,-7.0,-5.4));
#574=VECTOR('',#619,1.0);
#575=CARTESIAN_POINT('',(9.5,-4.25,-5.4));
#576=VECTOR('',#620,1.0);
#577=CARTESIAN_POINT('',(-1.75,7.0,-4.33680868994202E-16));
#578=CARTESIAN_POINT('',(-1.75,7.0,-5.4));
#579=VECTOR('',#621,1.0);
#580=CARTESIAN_POINT('',(-1.75,7.0,-4.33680868994202E-16));
#581=VECTOR('',#622,1.0);
#582=CARTESIAN_POINT('',(12.0,7.0,4.33680868994202E-16));
#583=VECTOR('',#623,1.0);
#584=DIRECTION('',(-0.707106781186548,0.707106781186548,-8.65927457071935E-17));
#585=DIRECTION('',(1.0,7.54436079429035E-34,7.35516008050633E-17));
#586=DIRECTION('',(3.10652089498862E-33,1.0,-5.24931739371724E-17));
#587=DIRECTION('',(1.0,7.54436079429035E-34,7.35516008050633E-17));
#588=DIRECTION('',(-7.17595311250643E-17,5.07011042571734E-17,1.0));
#589=DIRECTION('',(-0.707106781186548,0.707106781186548,-8.65927457071935E-17));
#590=DIRECTION('',(-7.17595311250643E-17,5.07011042571734E-17,1.0));
#591=DIRECTION('',(-7.17595311250643E-17,5.07011042571734E-17,1.0));
#592=DIRECTION('',(-0.590308068024425,0.590308068024425,0.55052045343524));
#593=DIRECTION('',(-0.707106781186548,0.707106781186548,-8.65927457071935E-17));
#594=DIRECTION('',(-0.590308068024424,0.590308068024424,-0.550520453435241));
#595=DIRECTION('',(-6.12303176911189E-17,5.24931739371724E-17,1.0));
#596=DIRECTION('',(-6.12303176911189E-17,5.24931739371724E-17,1.0));
#597=DIRECTION('',(1.0,-1.11022302462516E-16,6.12303176911189E-17));
#598=CARTESIAN_POINT('',(0.0,0.0,2.9));
#599=DIRECTION('',(7.35516008050633E-17,-5.24931739371724E-17,-1.0));
#600=DIRECTION('',(-1.0,0.0,-7.35516008050633E-17));
#601=DIRECTION('',(0.707106781186548,-0.707106781186548,8.91271149533657E-17));
#602=DIRECTION('',(-1.0,-7.54436079429035E-34,-7.35516008050633E-17));
#603=DIRECTION('',(-6.12303176911189E-17,5.24931739371724E-17,1.0));
#604=DIRECTION('',(-1.0,1.11022302462516E-16,-6.12303176911189E-17));
#605=DIRECTION('',(-6.12303176911189E-17,5.24931739371724E-17,1.0));
#606=DIRECTION('',(-4.17609754944578E-17,0.731323252525058,0.682031011256944));
#607=DIRECTION('',(1.11022302462516E-16,1.0,-6.12303176911189E-17));
#608=DIRECTION('',(1.0,-5.7789506580933E-17,1.23196429520401E-16));
#609=DIRECTION('',(1.0,-5.7789506580933E-17,1.23196429520401E-16));
#610=DIRECTION('',(0.590308068024424,-0.590308068024424,-0.550520453435241));
#611=CARTESIAN_POINT('',(0.0,0.0,-5.4));
#612=DIRECTION('',(7.35516008050633E-17,-5.24931739371724E-17,-1.0));
#613=DIRECTION('',(-1.0,0.0,-7.35516008050633E-17));
#614=DIRECTION('',(0.707106781186548,-0.707106781186548,8.65927457071935E-17));
#615=DIRECTION('',(-1.0,-7.54436079429035E-34,-7.35516008050633E-17));
#616=DIRECTION('',(0.590308068024425,-0.590308068024424,0.550520453435241));
#617=DIRECTION('',(4.17609754944577E-17,0.731323252525059,-0.682031011256944));
#618=DIRECTION('',(1.0,-4.54981607972092E-17,1.24438807272023E-17));
#619=DIRECTION('',(-6.12303176911189E-17,5.24931739371724E-17,1.0));
#620=DIRECTION('',(-7.35516008050633E-17,6.12303176911189E-17,1.0));
#621=DIRECTION('',(-7.17595311250643E-17,5.07011042571734E-17,1.0));
#622=DIRECTION('',(0.707106781186548,-0.707106781186548,8.65927457071935E-17));
#623=DIRECTION('',(1.0,7.54436079429035E-34,7.35516008050633E-17));
ENDSEC;
END-ISO-10303-21;
