ISO-10303-21;
HEADER;
FILE_DESCRIPTION(('STEP AP203'),'1');
FILE_NAME('FIXE08N1047.stp','2023-10-23T12:58:55',(' '),(' '),'Spatial InterOp 3D',' ',' ');
FILE_SCHEMA(('CONFIG_CONTROL_DESIGN'));
ENDSEC;
DATA;
#1=DESIGN_CONTEXT('',#51,'design');
#2=APPLICATION_PROTOCOL_DEFINITION('INTERNATIONAL STANDARD','config_control_design',1994,#51);
#3=PRODUCT_CATEGORY_RELATIONSHIP('NONE','NONE',#52,#53);
#4=DATE_AND_TIME(#54,#55);
#5=DATE_TIME_ROLE('creation_date');
#6=DATE_TIME_ROLE('classification_date');
#7=PERSON_AND_ORGANIZATION_ROLE('creator');
#8=PERSON_AND_ORGANIZATION_ROLE('design_supplier');
#9=PERSON_AND_ORGANIZATION_ROLE('classification_officer');
#10=PERSON_AND_ORGANIZATION_ROLE('design_owner');
#11=APPROVAL_PERSON_ORGANIZATION(#56,#57,#58);
#12=APPROVAL_DATE_TIME(#4,#57);
#13=CC_DESIGN_APPROVAL(#57,(#59,#60,#61));
#14=CC_DESIGN_DATE_AND_TIME_ASSIGNMENT(#4,#5,(#61));
#15=CC_DESIGN_DATE_AND_TIME_ASSIGNMENT(#4,#6,(#59));
#16=CC_DESIGN_PERSON_AND_ORGANIZATION_ASSIGNMENT(#56,#10,(#62));
#17=CC_DESIGN_PERSON_AND_ORGANIZATION_ASSIGNMENT(#56,#7,(#61));
#18=CC_DESIGN_PERSON_AND_ORGANIZATION_ASSIGNMENT(#56,#7,(#60));
#19=CC_DESIGN_PERSON_AND_ORGANIZATION_ASSIGNMENT(#56,#8,(#60));
#20=CC_DESIGN_SECURITY_CLASSIFICATION(#59,(#60));
#21=CC_DESIGN_PERSON_AND_ORGANIZATION_ASSIGNMENT(#56,#9,(#59));
#22=SHAPE_DEFINITION_REPRESENTATION(#63,#64);
#23= (GEOMETRIC_REPRESENTATION_CONTEXT(3)GLOBAL_UNCERTAINTY_ASSIGNED_CONTEXT((#67))GLOBAL_UNIT_ASSIGNED_CONTEXT((#69,#70,#71))REPRESENTATION_CONTEXT('NONE','WORKSPACE'));
#24=PROPERTY_DEFINITION_REPRESENTATION(#73,#74);
#25=GENERAL_PROPERTY_ASSOCIATION('','',#75,#73);
#26=PROPERTY_DEFINITION_REPRESENTATION(#76,#77);
#27=GENERAL_PROPERTY_ASSOCIATION('','',#78,#76);
#28=PROPERTY_DEFINITION_REPRESENTATION(#79,#80);
#29=GENERAL_PROPERTY_ASSOCIATION('','',#81,#79);
#30=PROPERTY_DEFINITION_REPRESENTATION(#82,#83);
#31=GENERAL_PROPERTY_ASSOCIATION('','',#84,#82);
#32=PROPERTY_DEFINITION_REPRESENTATION(#85,#86);
#33=GENERAL_PROPERTY_ASSOCIATION('','',#87,#85);
#34=PROPERTY_DEFINITION_REPRESENTATION(#88,#89);
#35=GENERAL_PROPERTY_ASSOCIATION('','',#90,#88);
#36=PROPERTY_DEFINITION_REPRESENTATION(#91,#92);
#37=GENERAL_PROPERTY_ASSOCIATION('','',#93,#91);
#38=PROPERTY_DEFINITION_REPRESENTATION(#94,#95);
#39=GENERAL_PROPERTY_ASSOCIATION('','',#96,#94);
#40=PROPERTY_DEFINITION_REPRESENTATION(#97,#98);
#41=GENERAL_PROPERTY_ASSOCIATION('','',#99,#97);
#42=PROPERTY_DEFINITION_REPRESENTATION(#100,#101);
#43=GENERAL_PROPERTY_ASSOCIATION('','',#102,#100);
#44=PROPERTY_DEFINITION_REPRESENTATION(#103,#104);
#45=GENERAL_PROPERTY_ASSOCIATION('','',#105,#103);
#46=PROPERTY_DEFINITION_REPRESENTATION(#106,#107);
#47=GENERAL_PROPERTY_ASSOCIATION('','',#108,#106);
#51=APPLICATION_CONTEXT('CONFIGURATION CONTROLLED 3D DESIGNS OF MECHANICAL PARTS AND ASSEMBLIES');
#52=PRODUCT_CATEGORY('part','NONE');
#53=PRODUCT_RELATED_PRODUCT_CATEGORY('detail',' ',(#62));
#54=CALENDAR_DATE(2023,23,9);
#55=LOCAL_TIME(14,58,55.0,#109);
#56=PERSON_AND_ORGANIZATION(#110,#111);
#57=APPROVAL(#112,'SOLID MODEL');
#58=APPROVAL_ROLE('APPROVED');
#59=SECURITY_CLASSIFICATION('','',#113);
#60=PRODUCT_DEFINITION_FORMATION_WITH_SPECIFIED_SOURCE('A','NONE',#62,.NOT_KNOWN.);
#61=PRODUCT_DEFINITION('','NONE',#60,#1);
#62=PRODUCT('Ecrou coulisseau M8 13x40','%#@![$ComplementaryPartNumber=FIXE08N1047]','Ecrou coulisseau M8 13x40',(#114));
#63=PRODUCT_DEFINITION_SHAPE('NONE','NONE',#61);
#64=ADVANCED_BREP_SHAPE_REPRESENTATION('1',(#115,#116),#23);
#67=UNCERTAINTY_MEASURE_WITH_UNIT(LENGTH_MEASURE(0.001),#69,'','');
#69= (CONVERSION_BASED_UNIT('MILLIMETRE',#119)LENGTH_UNIT()NAMED_UNIT(#122));
#70= (NAMED_UNIT(#124)PLANE_ANGLE_UNIT()SI_UNIT($,.RADIAN.));
#71= (NAMED_UNIT(#124)SOLID_ANGLE_UNIT()SI_UNIT($,.STERADIAN.));
#73=PROPERTY_DEFINITION('PdmObjectId','',#61);
#74=REPRESENTATION('',(#130),#23);
#75=GENERAL_PROPERTY('','19_11fe0f7c-4cfb-45aa-be85-f880201cdf3b&5_214_17_15','');
#76=PROPERTY_DEFINITION('CATALOGUE_ID','',#61);
#77=REPRESENTATION('',(#131),#23);
#78=GENERAL_PROPERTY('','1047','');
#79=PROPERTY_DEFINITION('CATALOGUE_PREFIXE','',#61);
#80=REPRESENTATION('',(#132),#23);
#81=GENERAL_PROPERTY('','FIXE','');
#82=PROPERTY_DEFINITION('CATALOGUE_LIGNE','',#61);
#83=REPRESENTATION('',(#133),#23);
#84=GENERAL_PROPERTY('','08','');
#85=PROPERTY_DEFINITION('CATALOGUE_LETTRE','',#61);
#86=REPRESENTATION('',(#134),#23);
#87=GENERAL_PROPERTY('','N','');
#88=PROPERTY_DEFINITION('Type de production hellomoov','',#61);
#89=REPRESENTATION('',(#135),#23);
#90=GENERAL_PROPERTY('','pi\X2\00E8\X0\ce du stock','');
#91=PROPERTY_DEFINITION('D\X2\00E9\X0\signation du mat\X2\00E9\X0\riau','',#61);
#92=REPRESENTATION('',(#136),#23);
#93=GENERAL_PROPERTY('','Acier','');
#94=PROPERTY_DEFINITION('Nom du mat\X2\00E9\X0\riau','',#61);
#95=REPRESENTATION('',(#137),#23);
#96=GENERAL_PROPERTY('','Acier','');
#97=PROPERTY_DEFINITION('Manufacturer','',#61);
#98=REPRESENTATION('',(#138),#23);
#99=GENERAL_PROPERTY('','HELLOMOOV','');
#100=PROPERTY_DEFINITION('CreationDate','',#61);
#101=REPRESENTATION('',(#139),#23);
#102=GENERAL_PROPERTY('','23/10/2023 12:57:00','');
#103=PROPERTY_DEFINITION('Minor Revision','',#61);
#104=REPRESENTATION('',(#140),#23);
#105=GENERAL_PROPERTY('','0','');
#106=PROPERTY_DEFINITION('Complementary Part Number','',#61);
#107=REPRESENTATION('',(#141),#23);
#108=GENERAL_PROPERTY('','%#@![CATALOGUE_PREFIXE=FIXE][CATALOGUE_LIGNE=08][CATALOGUE_LETTRE=N][CATALOGUE_ID=1047]','');
#109=COORDINATED_UNIVERSAL_TIME_OFFSET(1,0,.AHEAD.);
#110=PERSON('','UNSPECIFIED',$,$,$,$);
#111=ORGANIZATION('UNSPECIFIED','UNSPECIFIED','UNSPECIFIED');
#112=APPROVAL_STATUS('approved');
#113=SECURITY_CLASSIFICATION_LEVEL('unclassified');
#114=MECHANICAL_CONTEXT('',#51,'mechanical');
#115=MANIFOLD_SOLID_BREP('1',#142);
#116=AXIS2_PLACEMENT_3D('',#143,#144,#145);
#119=LENGTH_MEASURE_WITH_UNIT(LENGTH_MEASURE(1.0),#146);
#122=DIMENSIONAL_EXPONENTS(1.0,0.0,0.0,0.0,0.0,0.0,0.0);
#124=DIMENSIONAL_EXPONENTS(0.0,0.0,0.0,0.0,0.0,0.0,0.0);
#130=DESCRIPTIVE_REPRESENTATION_ITEM('','19_11fe0f7c-4cfb-45aa-be85-f880201cdf3b&5_214_17_15');
#131=DESCRIPTIVE_REPRESENTATION_ITEM('','1047');
#132=DESCRIPTIVE_REPRESENTATION_ITEM('','FIXE');
#133=DESCRIPTIVE_REPRESENTATION_ITEM('','08');
#134=DESCRIPTIVE_REPRESENTATION_ITEM('','N');
#135=DESCRIPTIVE_REPRESENTATION_ITEM('','pi\X2\00E8\X0\ce du stock');
#136=DESCRIPTIVE_REPRESENTATION_ITEM('','Acier');
#137=DESCRIPTIVE_REPRESENTATION_ITEM('','Acier');
#138=DESCRIPTIVE_REPRESENTATION_ITEM('','HELLOMOOV');
#139=DESCRIPTIVE_REPRESENTATION_ITEM('','23/10/2023 12:57:00');
#140=DESCRIPTIVE_REPRESENTATION_ITEM('','0');
#141=DESCRIPTIVE_REPRESENTATION_ITEM('','%#@![CATALOGUE_PREFIXE=FIXE][CATALOGUE_LIGNE=08][CATALOGUE_LETTRE=N][CATALOGUE_ID=1047]');
#142=CLOSED_SHELL('',(#147,#148,#149,#150,#151,#152,#153,#154,#155));
#143=CARTESIAN_POINT('',(0.0,0.0,0.0));
#144=DIRECTION('',(0.0,0.0,1.0));
#145=DIRECTION('',(1.0,0.0,0.0));
#146= (NAMED_UNIT(#122)LENGTH_UNIT()SI_UNIT(.MILLI.,.METRE.));
#147=ADVANCED_FACE('',(#157),#158,.F.);
#148=ADVANCED_FACE('',(#159),#160,.F.);
#149=ADVANCED_FACE('',(#161),#162,.T.);
#150=ADVANCED_FACE('',(#163,#164),#165,.F.);
#151=ADVANCED_FACE('',(#166,#167),#168,.F.);
#152=ADVANCED_FACE('',(#169,#170),#171,.F.);
#153=ADVANCED_FACE('',(#172),#173,.F.);
#154=ADVANCED_FACE('',(#174),#175,.F.);
#155=ADVANCED_FACE('',(#176),#177,.F.);
#157=FACE_OUTER_BOUND('',#178,.T.);
#158=PLANE('',#179);
#159=FACE_OUTER_BOUND('',#180,.T.);
#160=PLANE('',#181);
#161=FACE_OUTER_BOUND('',#182,.T.);
#162=PLANE('',#183);
#163=FACE_BOUND('',#184,.T.);
#164=FACE_OUTER_BOUND('',#185,.T.);
#165=PLANE('',#186);
#166=FACE_OUTER_BOUND('',#187,.T.);
#167=FACE_OUTER_BOUND('',#188,.T.);
#168=CYLINDRICAL_SURFACE('',#189,3.4);
#169=FACE_BOUND('',#190,.T.);
#170=FACE_OUTER_BOUND('',#191,.T.);
#171=PLANE('',#192);
#172=FACE_OUTER_BOUND('',#193,.T.);
#173=PLANE('',#194);
#174=FACE_OUTER_BOUND('',#195,.T.);
#175=PLANE('',#196);
#176=FACE_OUTER_BOUND('',#197,.T.);
#177=PLANE('',#198);
#178=EDGE_LOOP('',(#199,#200,#201,#202));
#179=AXIS2_PLACEMENT_3D('',#203,#204,#205);
#180=EDGE_LOOP('',(#206,#207,#208,#209,#210,#211));
#181=AXIS2_PLACEMENT_3D('',#212,#213,#214);
#182=EDGE_LOOP('',(#215,#216,#217,#218,#219,#220));
#183=AXIS2_PLACEMENT_3D('',#221,#222,#223);
#184=EDGE_LOOP('',(#224));
#185=EDGE_LOOP('',(#225,#226,#227,#228));
#186=AXIS2_PLACEMENT_3D('',#229,#230,#231);
#187=EDGE_LOOP('',(#232));
#188=EDGE_LOOP('',(#233));
#189=AXIS2_PLACEMENT_3D('',#234,#235,#236);
#190=EDGE_LOOP('',(#237));
#191=EDGE_LOOP('',(#238,#239,#240,#241));
#192=AXIS2_PLACEMENT_3D('',#242,#243,#244);
#193=EDGE_LOOP('',(#245,#246,#247,#248));
#194=AXIS2_PLACEMENT_3D('',#249,#250,#251);
#195=EDGE_LOOP('',(#252,#253,#254,#255));
#196=AXIS2_PLACEMENT_3D('',#256,#257,#258);
#197=EDGE_LOOP('',(#259,#260,#261,#262));
#198=AXIS2_PLACEMENT_3D('',#263,#264,#265);
#199=ORIENTED_EDGE('',*,*,#266,.F.);
#200=ORIENTED_EDGE('',*,*,#267,.F.);
#201=ORIENTED_EDGE('',*,*,#268,.T.);
#202=ORIENTED_EDGE('',*,*,#269,.T.);
#203=CARTESIAN_POINT('',(6.5,-7.45346092250836E-17,20.0));
#204=DIRECTION('',(-1.0,-1.07294439407769E-17,-1.38777878078144E-16));
#205=DIRECTION('',(-1.38777878078144E-16,0.0,1.0));
#206=ORIENTED_EDGE('',*,*,#270,.T.);
#207=ORIENTED_EDGE('',*,*,#271,.F.);
#208=ORIENTED_EDGE('',*,*,#272,.F.);
#209=ORIENTED_EDGE('',*,*,#273,.F.);
#210=ORIENTED_EDGE('',*,*,#274,.F.);
#211=ORIENTED_EDGE('',*,*,#269,.F.);
#212=CARTESIAN_POINT('',(6.5,6.0,-20.0));
#213=DIRECTION('',(1.52489288928032E-34,-1.09880112767084E-18,1.0));
#214=DIRECTION('',(0.0,-1.0,-1.09880112767084E-18));
#215=ORIENTED_EDGE('',*,*,#275,.T.);
#216=ORIENTED_EDGE('',*,*,#276,.T.);
#217=ORIENTED_EDGE('',*,*,#267,.T.);
#218=ORIENTED_EDGE('',*,*,#277,.T.);
#219=ORIENTED_EDGE('',*,*,#278,.T.);
#220=ORIENTED_EDGE('',*,*,#279,.T.);
#221=CARTESIAN_POINT('',(6.5,6.0,20.0));
#222=DIRECTION('',(1.52489288928032E-34,-1.09880112767084E-18,1.0));
#223=DIRECTION('',(0.0,-1.0,-1.09880112767084E-18));
#224=ORIENTED_EDGE('',*,*,#280,.F.);
#225=ORIENTED_EDGE('',*,*,#268,.F.);
#226=ORIENTED_EDGE('',*,*,#276,.F.);
#227=ORIENTED_EDGE('',*,*,#281,.F.);
#228=ORIENTED_EDGE('',*,*,#270,.F.);
#229=CARTESIAN_POINT('',(6.5,-7.45346092250836E-17,20.0));
#230=DIRECTION('',(-1.463494093547E-34,1.0,1.09880112767087E-18));
#231=DIRECTION('',(0.0,-1.09880112767087E-18,1.0));
#232=ORIENTED_EDGE('',*,*,#282,.F.);
#233=ORIENTED_EDGE('',*,*,#280,.T.);
#234=CARTESIAN_POINT('',(0.0,0.0,0.0));
#235=DIRECTION('',(1.07294439407769E-17,-1.0,-1.09880112767086E-18));
#236=DIRECTION('',(1.0,1.07294439407769E-17,0.0));
#237=ORIENTED_EDGE('',*,*,#282,.T.);
#238=ORIENTED_EDGE('',*,*,#283,.F.);
#239=ORIENTED_EDGE('',*,*,#278,.F.);
#240=ORIENTED_EDGE('',*,*,#284,.F.);
#241=ORIENTED_EDGE('',*,*,#273,.T.);
#242=CARTESIAN_POINT('',(4.5,6.0,20.0));
#243=DIRECTION('',(-8.08593641102558E-18,-1.0,1.84988399800268E-17));
#244=DIRECTION('',(0.0,-1.84988399800268E-17,-1.0));
#245=ORIENTED_EDGE('',*,*,#281,.T.);
#246=ORIENTED_EDGE('',*,*,#275,.F.);
#247=ORIENTED_EDGE('',*,*,#285,.F.);
#248=ORIENTED_EDGE('',*,*,#271,.T.);
#249=CARTESIAN_POINT('',(-6.5,-1.56140569585084E-15,20.0));
#250=DIRECTION('',(1.0,6.16743202251603E-32,1.38777878078145E-16));
#251=DIRECTION('',(1.38777878078145E-16,0.0,-1.0));
#252=ORIENTED_EDGE('',*,*,#285,.T.);
#253=ORIENTED_EDGE('',*,*,#279,.F.);
#254=ORIENTED_EDGE('',*,*,#283,.T.);
#255=ORIENTED_EDGE('',*,*,#272,.T.);
#256=CARTESIAN_POINT('',(-6.5,4.0,20.0));
#257=DIRECTION('',(0.707106781186544,-0.707106781186551,7.7727653205637E-17));
#258=DIRECTION('',(0.707106781186551,0.707106781186544,0.0));
#259=ORIENTED_EDGE('',*,*,#284,.T.);
#260=ORIENTED_EDGE('',*,*,#277,.F.);
#261=ORIENTED_EDGE('',*,*,#266,.T.);
#262=ORIENTED_EDGE('',*,*,#274,.T.);
#263=CARTESIAN_POINT('',(6.5,4.0,20.0));
#264=DIRECTION('',(-0.707106781186544,-0.707106781186551,-7.92815926627398E-17));
#265=DIRECTION('',(0.707106781186551,-0.707106781186544,0.0));
#266=EDGE_CURVE('',#286,#287,#288,.F.);
#267=EDGE_CURVE('',#289,#286,#290,.T.);
#268=EDGE_CURVE('',#289,#291,#292,.F.);
#269=EDGE_CURVE('',#291,#287,#293,.F.);
#270=EDGE_CURVE('',#291,#294,#295,.F.);
#271=EDGE_CURVE('',#296,#294,#297,.T.);
#272=EDGE_CURVE('',#298,#296,#299,.T.);
#273=EDGE_CURVE('',#300,#298,#301,.F.);
#274=EDGE_CURVE('',#287,#300,#302,.T.);
#275=EDGE_CURVE('',#303,#304,#305,.T.);
#276=EDGE_CURVE('',#304,#289,#306,.T.);
#277=EDGE_CURVE('',#286,#307,#308,.T.);
#278=EDGE_CURVE('',#307,#309,#310,.F.);
#279=EDGE_CURVE('',#309,#303,#311,.T.);
#280=EDGE_CURVE('',#312,#312,#313,.T.);
#281=EDGE_CURVE('',#294,#304,#314,.T.);
#282=EDGE_CURVE('',#315,#315,#316,.T.);
#283=EDGE_CURVE('',#309,#298,#317,.T.);
#284=EDGE_CURVE('',#300,#307,#318,.F.);
#285=EDGE_CURVE('',#296,#303,#319,.F.);
#286=VERTEX_POINT('',#320);
#287=VERTEX_POINT('',#321);
#288=LINE('',#322,#323);
#289=VERTEX_POINT('',#324);
#290=LINE('',#325,#326);
#291=VERTEX_POINT('',#327);
#292=LINE('',#328,#329);
#293=LINE('',#330,#331);
#294=VERTEX_POINT('',#332);
#295=LINE('',#333,#334);
#296=VERTEX_POINT('',#335);
#297=LINE('',#336,#337);
#298=VERTEX_POINT('',#338);
#299=LINE('',#339,#340);
#300=VERTEX_POINT('',#341);
#301=LINE('',#342,#343);
#302=LINE('',#344,#345);
#303=VERTEX_POINT('',#346);
#304=VERTEX_POINT('',#347);
#305=LINE('',#348,#349);
#306=LINE('',#350,#351);
#307=VERTEX_POINT('',#352);
#308=LINE('',#353,#354);
#309=VERTEX_POINT('',#355);
#310=LINE('',#356,#357);
#311=LINE('',#358,#359);
#312=VERTEX_POINT('',#360);
#313=CIRCLE('',#361,3.4);
#314=LINE('',#362,#363);
#315=VERTEX_POINT('',#364);
#316=CIRCLE('',#365,3.4);
#317=LINE('',#366,#367);
#318=LINE('',#368,#369);
#319=LINE('',#370,#371);
#320=CARTESIAN_POINT('',(6.5,4.0,20.0));
#321=CARTESIAN_POINT('',(6.5,4.0,-20.0));
#322=CARTESIAN_POINT('',(6.5,4.0,20.0));
#323=VECTOR('',#372,1.0);
#324=CARTESIAN_POINT('',(6.5,-8.93641031324237E-16,20.0));
#325=CARTESIAN_POINT('',(6.5,-7.45346092250836E-17,20.0));
#326=VECTOR('',#373,1.0);
#327=CARTESIAN_POINT('',(6.5,-4.56617792082889E-16,-20.0));
#328=CARTESIAN_POINT('',(6.5,-7.45346092250836E-17,20.0));
#329=VECTOR('',#374,1.0);
#330=CARTESIAN_POINT('',(6.5,6.0,-20.0));
#331=VECTOR('',#375,1.0);
#332=CARTESIAN_POINT('',(-6.5,-1.22202935794918E-15,-20.0));
#333=CARTESIAN_POINT('',(6.5,-3.0582564118249E-17,-20.0));
#334=VECTOR('',#376,1.0);
#335=CARTESIAN_POINT('',(-6.5,4.0,-20.0));
#336=CARTESIAN_POINT('',(-6.5,6.0,-20.0));
#337=VECTOR('',#377,1.0);
#338=CARTESIAN_POINT('',(-4.5,6.0,-20.0));
#339=CARTESIAN_POINT('',(-4.5,6.0,-20.0));
#340=VECTOR('',#378,1.0);
#341=CARTESIAN_POINT('',(4.5,6.0,-20.0));
#342=CARTESIAN_POINT('',(6.5,6.0,-20.0));
#343=VECTOR('',#379,1.0);
#344=CARTESIAN_POINT('',(6.5,4.0,-20.0));
#345=VECTOR('',#380,1.0);
#346=CARTESIAN_POINT('',(-6.5,4.0,20.0));
#347=CARTESIAN_POINT('',(-6.5,-1.23301736922589E-15,20.0));
#348=CARTESIAN_POINT('',(-6.5,6.0,20.0));
#349=VECTOR('',#381,1.0);
#350=CARTESIAN_POINT('',(6.5,-7.45346092250836E-17,20.0));
#351=VECTOR('',#382,1.0);
#352=CARTESIAN_POINT('',(4.5,6.0,20.0));
#353=CARTESIAN_POINT('',(6.5,4.0,20.0));
#354=VECTOR('',#383,1.0);
#355=CARTESIAN_POINT('',(-4.5,6.0,20.0));
#356=CARTESIAN_POINT('',(6.5,6.0,20.0));
#357=VECTOR('',#384,1.0);
#358=CARTESIAN_POINT('',(-4.5,6.0,20.0));
#359=VECTOR('',#385,1.0);
#360=CARTESIAN_POINT('',(3.4,-1.10240379965617E-15,-1.25140692355562E-33));
#361=AXIS2_PLACEMENT_3D('',#386,#387,#388);
#362=CARTESIAN_POINT('',(-6.5,-7.45346092250836E-17,20.0));
#363=VECTOR('',#389,1.0);
#364=CARTESIAN_POINT('',(3.4,6.0,6.59280676602517E-18));
#365=AXIS2_PLACEMENT_3D('',#390,#391,#392);
#366=CARTESIAN_POINT('',(-4.5,6.0,20.0));
#367=VECTOR('',#393,1.0);
#368=CARTESIAN_POINT('',(4.5,6.0,20.0));
#369=VECTOR('',#394,1.0);
#370=CARTESIAN_POINT('',(-6.5,4.0,20.0));
#371=VECTOR('',#395,1.0);
#372=DIRECTION('',(-1.38777878078144E-16,0.0,1.0));
#373=DIRECTION('',(-1.07294439407769E-17,1.0,-1.48900946305942E-33));
#374=DIRECTION('',(0.0,-1.09880112767087E-18,1.0));
#375=DIRECTION('',(0.0,-1.0,-1.09880112767084E-18));
#376=DIRECTION('',(1.0,1.463494093547E-34,1.6080889603291E-52));
#377=DIRECTION('',(0.0,-1.0,-1.09880112767084E-18));
#378=DIRECTION('',(-0.707106781186548,-0.707106781186548,0.0));
#379=DIRECTION('',(1.0,1.67555402631847E-52,-1.52489288928032E-34));
#380=DIRECTION('',(-0.707106781186548,0.707106781186548,0.0));
#381=DIRECTION('',(0.0,-1.0,-1.09880112767084E-18));
#382=DIRECTION('',(1.0,1.463494093547E-34,1.6080889603291E-52));
#383=DIRECTION('',(-0.707106781186548,0.707106781186548,0.0));
#384=DIRECTION('',(1.0,1.67555402631847E-52,-1.52489288928032E-34));
#385=DIRECTION('',(-0.707106781186548,-0.707106781186548,0.0));
#386=CARTESIAN_POINT('',(1.22195910572564E-32,-1.13888390905481E-15,-1.25140692355562E-33));
#387=DIRECTION('',(1.07294439407769E-17,-1.0,-1.09880112767086E-18));
#388=DIRECTION('',(1.0,1.07294439407769E-17,0.0));
#389=DIRECTION('',(0.0,-1.09880112767087E-18,1.0));
#390=CARTESIAN_POINT('',(-6.43766636446614E-17,6.0,6.59280676602517E-18));
#391=DIRECTION('',(1.07294439407769E-17,-1.0,-1.09880112767086E-18));
#392=DIRECTION('',(1.0,1.07294439407769E-17,0.0));
#393=DIRECTION('',(0.0,-1.84988399800268E-17,-1.0));
#394=DIRECTION('',(0.0,-1.84988399800268E-17,-1.0));
#395=DIRECTION('',(1.38777878078145E-16,0.0,-1.0));
ENDSEC;
END-ISO-10303-21;
