ISO-10303-21;
HEADER;
FILE_DESCRIPTION(('STEP AP203'),'1');
FILE_NAME('FIXE10B1049.stp','2023-10-17T10:08:36',(' '),(' '),'Spatial InterOp 3D',' ',' ');
FILE_SCHEMA(('CONFIG_CONTROL_DESIGN'));
ENDSEC;
DATA;
#1=DESIGN_CONTEXT('',#83,'design');
#2=APPLICATION_PROTOCOL_DEFINITION('INTERNATIONAL STANDARD','config_control_design',1994,#83);
#3=PRODUCT_CATEGORY_RELATIONSHIP('NONE','NONE',#84,#85);
#4=DATE_AND_TIME(#86,#87);
#5=DATE_TIME_ROLE('creation_date');
#6=DATE_TIME_ROLE('classification_date');
#7=PERSON_AND_ORGANIZATION_ROLE('creator');
#8=PERSON_AND_ORGANIZATION_ROLE('design_supplier');
#9=PERSON_AND_ORGANIZATION_ROLE('classification_officer');
#10=PERSON_AND_ORGANIZATION_ROLE('design_owner');
#11=APPROVAL_PERSON_ORGANIZATION(#88,#89,#90);
#12=APPROVAL_DATE_TIME(#4,#89);
#13=CC_DESIGN_APPROVAL(#89,(#91,#92,#93));
#14=CC_DESIGN_DATE_AND_TIME_ASSIGNMENT(#4,#5,(#93));
#15=CC_DESIGN_DATE_AND_TIME_ASSIGNMENT(#4,#6,(#91));
#16=CC_DESIGN_PERSON_AND_ORGANIZATION_ASSIGNMENT(#88,#10,(#94));
#17=CC_DESIGN_PERSON_AND_ORGANIZATION_ASSIGNMENT(#88,#7,(#93));
#18=CC_DESIGN_PERSON_AND_ORGANIZATION_ASSIGNMENT(#88,#7,(#92));
#19=CC_DESIGN_PERSON_AND_ORGANIZATION_ASSIGNMENT(#88,#8,(#92));
#20=CC_DESIGN_SECURITY_CLASSIFICATION(#91,(#92));
#21=CC_DESIGN_PERSON_AND_ORGANIZATION_ASSIGNMENT(#88,#9,(#91));
#22=SHAPE_DEFINITION_REPRESENTATION(#95,#96);
#23= (GEOMETRIC_REPRESENTATION_CONTEXT(3)GLOBAL_UNCERTAINTY_ASSIGNED_CONTEXT((#99))GLOBAL_UNIT_ASSIGNED_CONTEXT((#101,#102,#103))REPRESENTATION_CONTEXT('NONE','WORKSPACE'));
#24=PROPERTY_DEFINITION_REPRESENTATION(#105,#106);
#25=GENERAL_PROPERTY_ASSOCIATION('','',#107,#105);
#26=PROPERTY_DEFINITION_REPRESENTATION(#108,#109);
#27=GENERAL_PROPERTY_ASSOCIATION('','',#110,#108);
#28=PROPERTY_DEFINITION_REPRESENTATION(#111,#112);
#29=GENERAL_PROPERTY_ASSOCIATION('','',#113,#111);
#30=PROPERTY_DEFINITION_REPRESENTATION(#114,#115);
#31=GENERAL_PROPERTY_ASSOCIATION('','',#116,#114);
#32=PROPERTY_DEFINITION_REPRESENTATION(#117,#118);
#33=GENERAL_PROPERTY_ASSOCIATION('','',#119,#117);
#34=PROPERTY_DEFINITION_REPRESENTATION(#120,#121);
#35=GENERAL_PROPERTY_ASSOCIATION('','',#122,#120);
#36=PROPERTY_DEFINITION_REPRESENTATION(#123,#124);
#37=GENERAL_PROPERTY_ASSOCIATION('','',#125,#123);
#38=PROPERTY_DEFINITION_REPRESENTATION(#126,#127);
#39=GENERAL_PROPERTY_ASSOCIATION('','',#128,#126);
#40=PROPERTY_DEFINITION_REPRESENTATION(#129,#130);
#41=GENERAL_PROPERTY_ASSOCIATION('','',#131,#129);
#42=PROPERTY_DEFINITION_REPRESENTATION(#132,#133);
#43=GENERAL_PROPERTY_ASSOCIATION('','',#134,#132);
#44=PROPERTY_DEFINITION_REPRESENTATION(#135,#136);
#45=GENERAL_PROPERTY_ASSOCIATION('','',#137,#135);
#46=PROPERTY_DEFINITION_REPRESENTATION(#138,#139);
#47=GENERAL_PROPERTY_ASSOCIATION('','',#140,#138);
#48=PROPERTY_DEFINITION_REPRESENTATION(#141,#142);
#49=GENERAL_PROPERTY_ASSOCIATION('','',#143,#141);
#50=PROPERTY_DEFINITION_REPRESENTATION(#144,#145);
#51=GENERAL_PROPERTY_ASSOCIATION('','',#146,#144);
#52=PROPERTY_DEFINITION_REPRESENTATION(#147,#148);
#53=GENERAL_PROPERTY_ASSOCIATION('','',#149,#147);
#54=PROPERTY_DEFINITION_REPRESENTATION(#150,#151);
#55=GENERAL_PROPERTY_ASSOCIATION('','',#152,#150);
#56=PROPERTY_DEFINITION_REPRESENTATION(#153,#154);
#57=GENERAL_PROPERTY_ASSOCIATION('','',#155,#153);
#58=PROPERTY_DEFINITION_REPRESENTATION(#156,#157);
#59=GENERAL_PROPERTY_ASSOCIATION('','',#158,#156);
#60=PROPERTY_DEFINITION_REPRESENTATION(#159,#160);
#61=GENERAL_PROPERTY_ASSOCIATION('','',#161,#159);
#62=PROPERTY_DEFINITION_REPRESENTATION(#162,#163);
#63=GENERAL_PROPERTY_ASSOCIATION('','',#164,#162);
#64=PROPERTY_DEFINITION_REPRESENTATION(#165,#166);
#65=GENERAL_PROPERTY_ASSOCIATION('','',#167,#165);
#66=PROPERTY_DEFINITION_REPRESENTATION(#168,#169);
#67=GENERAL_PROPERTY_ASSOCIATION('','',#170,#168);
#68=PROPERTY_DEFINITION_REPRESENTATION(#171,#172);
#69=GENERAL_PROPERTY_ASSOCIATION('','',#173,#171);
#70=PROPERTY_DEFINITION_REPRESENTATION(#174,#175);
#71=GENERAL_PROPERTY_ASSOCIATION('','',#176,#174);
#72=PROPERTY_DEFINITION_REPRESENTATION(#177,#178);
#73=GENERAL_PROPERTY_ASSOCIATION('','',#179,#177);
#74=PROPERTY_DEFINITION_REPRESENTATION(#180,#181);
#75=GENERAL_PROPERTY_ASSOCIATION('','',#182,#180);
#76=PROPERTY_DEFINITION_REPRESENTATION(#183,#184);
#77=GENERAL_PROPERTY_ASSOCIATION('','',#185,#183);
#78=PROPERTY_DEFINITION_REPRESENTATION(#186,#187);
#79=GENERAL_PROPERTY_ASSOCIATION('','',#188,#186);
#83=APPLICATION_CONTEXT('CONFIGURATION CONTROLLED 3D DESIGNS OF MECHANICAL PARTS AND ASSEMBLIES');
#84=PRODUCT_CATEGORY('part','NONE');
#85=PRODUCT_RELATED_PRODUCT_CATEGORY('detail',' ',(#94));
#86=CALENDAR_DATE(2023,17,9);
#87=LOCAL_TIME(12,8,36.0,#189);
#88=PERSON_AND_ORGANIZATION(#190,#191);
#89=APPROVAL(#192,'SOLID MODEL');
#90=APPROVAL_ROLE('APPROVED');
#91=SECURITY_CLASSIFICATION('','',#193);
#92=PRODUCT_DEFINITION_FORMATION_WITH_SPECIFIED_SOURCE('A','NONE',#94,.NOT_KNOWN.);
#93=PRODUCT_DEFINITION('','NONE',#92,#1);
#94=PRODUCT('Cache Raccord d''angle 10-45x45x45','FIXE10B1049','Cache Raccord d''angle 10-45x45x45',(#194));
#95=PRODUCT_DEFINITION_SHAPE('NONE','NONE',#93);
#96=ADVANCED_BREP_SHAPE_REPRESENTATION('1',(#195,#196),#23);
#99=UNCERTAINTY_MEASURE_WITH_UNIT(LENGTH_MEASURE(0.001),#101,'','');
#101= (CONVERSION_BASED_UNIT('MILLIMETRE',#199)LENGTH_UNIT()NAMED_UNIT(#202));
#102= (NAMED_UNIT(#204)PLANE_ANGLE_UNIT()SI_UNIT($,.RADIAN.));
#103= (NAMED_UNIT(#204)SOLID_ANGLE_UNIT()SI_UNIT($,.STERADIAN.));
#105=PROPERTY_DEFINITION('PdmObjectId','',#93);
#106=REPRESENTATION('',(#210),#23);
#107=GENERAL_PROPERTY('','37_ed3939cf-ff3d-48b5-96fd-1e668051a8a6&2_397_0_28','');
#108=PROPERTY_DEFINITION('FOURNISSEUR','',#93);
#109=REPRESENTATION('',(#211),#23);
#110=GENERAL_PROPERTY('','\X2\00E0\X0\ d\X2\00E9\X0\finir','');
#111=PROPERTY_DEFINITION('FOURNISSEUR2','',#93);
#112=REPRESENTATION('',(#212),#23);
#113=GENERAL_PROPERTY('','\X2\00E0\X0\ d\X2\00E9\X0\finir','');
#114=PROPERTY_DEFINITION('CODE_TRANSEPT','',#93);
#115=REPRESENTATION('',(#213),#23);
#116=GENERAL_PROPERTY('','AKRA10454545','');
#117=PROPERTY_DEFINITION('TOLERANCES_BORDS','',#93);
#118=REPRESENTATION('',(#214),#23);
#119=GENERAL_PROPERTY('','ISO 13715','');
#120=PROPERTY_DEFINITION('TOLERANCES_GENERALES','',#93);
#121=REPRESENTATION('',(#215),#23);
#122=GENERAL_PROPERTY('','\X2\00E0\X0\ d\X2\00E9\X0\finir','');
#123=PROPERTY_DEFINITION('TRAITEMENT','',#93);
#124=REPRESENTATION('',(#216),#23);
#125=GENERAL_PROPERTY('','Non sp\X2\00E9\X0\cifi\X2\00E9\X0\','');
#126=PROPERTY_DEFINITION('DESIGNATION_ENG','',#93);
#127=REPRESENTATION('',(#217),#23);
#128=GENERAL_PROPERTY('','-','');
#129=PROPERTY_DEFINITION('ETAT_SURFACE','',#93);
#130=REPRESENTATION('',(#218),#23);
#131=GENERAL_PROPERTY('','-','');
#132=PROPERTY_DEFINITION('Type de production hellomoov','',#93);
#133=REPRESENTATION('',(#219),#23);
#134=GENERAL_PROPERTY('','pi\X2\00E8\X0\ce du stock','');
#135=PROPERTY_DEFINITION('Type de brut','',#93);
#136=REPRESENTATION('',(#220),#23);
#137=GENERAL_PROPERTY('','Non classifi\X2\00E9\X0\','');
#138=PROPERTY_DEFINITION('Dimensions du brut','',#93);
#139=REPRESENTATION('',(#221),#23);
#140=GENERAL_PROPERTY('','-','');
#141=PROPERTY_DEFINITION('Nom du brut','',#93);
#142=REPRESENTATION('',(#222),#23);
#143=GENERAL_PROPERTY('','-','');
#144=PROPERTY_DEFINITION('D\X2\00E9\X0\signation du brut','',#93);
#145=REPRESENTATION('',(#223),#23);
#146=GENERAL_PROPERTY('','-','');
#147=PROPERTY_DEFINITION('R\X2\00E9\X0\f\X2\00E9\X0\rence du brut','',#93);
#148=REPRESENTATION('',(#224),#23);
#149=GENERAL_PROPERTY('','','');
#150=PROPERTY_DEFINITION('R\X2\00E9\X0\vision majeure du brut','',#93);
#151=REPRESENTATION('',(#225),#23);
#152=GENERAL_PROPERTY('','','');
#153=PROPERTY_DEFINITION('D\X2\00E9\X0\signation du mat\X2\00E9\X0\riau','',#93);
#154=REPRESENTATION('',(#226),#23);
#155=GENERAL_PROPERTY('','PA 6-6 noir','');
#156=PROPERTY_DEFINITION('Nom du mat\X2\00E9\X0\riau','',#93);
#157=REPRESENTATION('',(#227),#23);
#158=GENERAL_PROPERTY('','PA 6-6 noir','');
#159=PROPERTY_DEFINITION('BrutFinal','',#93);
#160=REPRESENTATION('',(#228),#23);
#161=GENERAL_PROPERTY('','-','');
#162=PROPERTY_DEFINITION('BrutCylindrique','',#93);
#163=REPRESENTATION('',(#229),#23);
#164=GENERAL_PROPERTY('','\X2\00D8\X0\ 0,00 \X2\00D7\X0\ 0,00','');
#165=PROPERTY_DEFINITION('Diam\X2\00E8\X0\treCylindreFormat\X2\00E9\X0\','',#93);
#166=REPRESENTATION('',(#230),#23);
#167=GENERAL_PROPERTY('','0,00','');
#168=PROPERTY_DEFINITION('LongueurCylindreFormat\X2\00E9\X0\','',#93);
#169=REPRESENTATION('',(#231),#23);
#170=GENERAL_PROPERTY('','0,00','');
#171=PROPERTY_DEFINITION('BrutRectangulaire','',#93);
#172=REPRESENTATION('',(#232),#23);
#173=GENERAL_PROPERTY('','50,00 \X2\00D7\X0\ 50,00 \X2\00D7\X0\ 50,00','');
#174=PROPERTY_DEFINITION('TailleXBoiteFormat\X2\00E9\X0\','',#93);
#175=REPRESENTATION('',(#233),#23);
#176=GENERAL_PROPERTY('','50,00','');
#177=PROPERTY_DEFINITION('TailleYBoiteFormat\X2\00E9\X0\','',#93);
#178=REPRESENTATION('',(#234),#23);
#179=GENERAL_PROPERTY('','50,00','');
#180=PROPERTY_DEFINITION('TailleZBoiteFormat\X2\00E9\X0\','',#93);
#181=REPRESENTATION('',(#235),#23);
#182=GENERAL_PROPERTY('','50,00','');
#183=PROPERTY_DEFINITION('CreationDate','',#93);
#184=REPRESENTATION('',(#236),#23);
#185=GENERAL_PROPERTY('','20/04/2022 09:43:09','');
#186=PROPERTY_DEFINITION('Minor Revision','',#93);
#187=REPRESENTATION('',(#237),#23);
#188=GENERAL_PROPERTY('','15','');
#189=COORDINATED_UNIVERSAL_TIME_OFFSET(1,0,.AHEAD.);
#190=PERSON('','UNSPECIFIED',$,$,$,$);
#191=ORGANIZATION('UNSPECIFIED','UNSPECIFIED','UNSPECIFIED');
#192=APPROVAL_STATUS('approved');
#193=SECURITY_CLASSIFICATION_LEVEL('unclassified');
#194=MECHANICAL_CONTEXT('',#83,'mechanical');
#195=MANIFOLD_SOLID_BREP('1',#238);
#196=AXIS2_PLACEMENT_3D('',#239,#240,#241);
#199=LENGTH_MEASURE_WITH_UNIT(LENGTH_MEASURE(1.0),#242);
#202=DIMENSIONAL_EXPONENTS(1.0,0.0,0.0,0.0,0.0,0.0,0.0);
#204=DIMENSIONAL_EXPONENTS(0.0,0.0,0.0,0.0,0.0,0.0,0.0);
#210=DESCRIPTIVE_REPRESENTATION_ITEM('','37_ed3939cf-ff3d-48b5-96fd-1e668051a8a6&2_397_0_28');
#211=DESCRIPTIVE_REPRESENTATION_ITEM('','\X2\00E0\X0\ d\X2\00E9\X0\finir');
#212=DESCRIPTIVE_REPRESENTATION_ITEM('','\X2\00E0\X0\ d\X2\00E9\X0\finir');
#213=DESCRIPTIVE_REPRESENTATION_ITEM('','AKRA10454545');
#214=DESCRIPTIVE_REPRESENTATION_ITEM('','ISO 13715');
#215=DESCRIPTIVE_REPRESENTATION_ITEM('','\X2\00E0\X0\ d\X2\00E9\X0\finir');
#216=DESCRIPTIVE_REPRESENTATION_ITEM('','Non sp\X2\00E9\X0\cifi\X2\00E9\X0\');
#217=DESCRIPTIVE_REPRESENTATION_ITEM('','-');
#218=DESCRIPTIVE_REPRESENTATION_ITEM('','-');
#219=DESCRIPTIVE_REPRESENTATION_ITEM('','pi\X2\00E8\X0\ce du stock');
#220=DESCRIPTIVE_REPRESENTATION_ITEM('','Non classifi\X2\00E9\X0\');
#221=DESCRIPTIVE_REPRESENTATION_ITEM('','-');
#222=DESCRIPTIVE_REPRESENTATION_ITEM('','-');
#223=DESCRIPTIVE_REPRESENTATION_ITEM('','-');
#224=DESCRIPTIVE_REPRESENTATION_ITEM('','');
#225=DESCRIPTIVE_REPRESENTATION_ITEM('','');
#226=DESCRIPTIVE_REPRESENTATION_ITEM('','PA 6-6 noir');
#227=DESCRIPTIVE_REPRESENTATION_ITEM('','PA 6-6 noir');
#228=DESCRIPTIVE_REPRESENTATION_ITEM('','-');
#229=DESCRIPTIVE_REPRESENTATION_ITEM('','\X2\00D8\X0\ 0,00 \X2\00D7\X0\ 0,00');
#230=DESCRIPTIVE_REPRESENTATION_ITEM('','0,00');
#231=DESCRIPTIVE_REPRESENTATION_ITEM('','0,00');
#232=DESCRIPTIVE_REPRESENTATION_ITEM('','50,00 \X2\00D7\X0\ 50,00 \X2\00D7\X0\ 50,00');
#233=DESCRIPTIVE_REPRESENTATION_ITEM('','50,00');
#234=DESCRIPTIVE_REPRESENTATION_ITEM('','50,00');
#235=DESCRIPTIVE_REPRESENTATION_ITEM('','50,00');
#236=DESCRIPTIVE_REPRESENTATION_ITEM('','20/04/2022 09:43:09');
#237=DESCRIPTIVE_REPRESENTATION_ITEM('','15');
#238=CLOSED_SHELL('',(#243,#244,#245,#246,#247,#248,#249,#250,#251,#252,#253,#254,#255));
#239=CARTESIAN_POINT('',(0.0,0.0,0.0));
#240=DIRECTION('',(0.0,0.0,1.0));
#241=DIRECTION('',(1.0,0.0,0.0));
#242= (NAMED_UNIT(#202)LENGTH_UNIT()SI_UNIT(.MILLI.,.METRE.));
#243=ADVANCED_FACE('',(#257),#258,.T.);
#244=ADVANCED_FACE('',(#259),#260,.T.);
#245=ADVANCED_FACE('',(#261),#262,.T.);
#246=ADVANCED_FACE('',(#263),#264,.T.);
#247=ADVANCED_FACE('',(#265),#266,.T.);
#248=ADVANCED_FACE('',(#267),#268,.T.);
#249=ADVANCED_FACE('',(#269),#270,.T.);
#250=ADVANCED_FACE('',(#271),#272,.T.);
#251=ADVANCED_FACE('',(#273),#274,.T.);
#252=ADVANCED_FACE('',(#275),#276,.T.);
#253=ADVANCED_FACE('',(#277),#278,.F.);
#254=ADVANCED_FACE('',(#279),#280,.F.);
#255=ADVANCED_FACE('',(#281),#282,.F.);
#257=FACE_OUTER_BOUND('',#283,.T.);
#258=CYLINDRICAL_SURFACE('',#284,3.0);
#259=FACE_OUTER_BOUND('',#285,.T.);
#260=SPHERICAL_SURFACE('',#286,3.0);
#261=FACE_OUTER_BOUND('',#287,.T.);
#262=CYLINDRICAL_SURFACE('',#288,3.0);
#263=FACE_OUTER_BOUND('',#289,.T.);
#264=PLANE('',#290);
#265=FACE_OUTER_BOUND('',#291,.T.);
#266=PLANE('',#292);
#267=FACE_OUTER_BOUND('',#293,.T.);
#268=PLANE('',#294);
#269=FACE_OUTER_BOUND('',#295,.T.);
#270=PLANE('',#296);
#271=FACE_OUTER_BOUND('',#297,.T.);
#272=PLANE('',#298);
#273=FACE_OUTER_BOUND('',#299,.T.);
#274=PLANE('',#300);
#275=FACE_OUTER_BOUND('',#301,.T.);
#276=CYLINDRICAL_SURFACE('',#302,3.0);
#277=FACE_OUTER_BOUND('',#303,.T.);
#278=PLANE('',#304);
#279=FACE_OUTER_BOUND('',#305,.T.);
#280=PLANE('',#306);
#281=FACE_OUTER_BOUND('',#307,.T.);
#282=PLANE('',#308);
#283=EDGE_LOOP('',(#309,#310,#311,#312));
#284=AXIS2_PLACEMENT_3D('',#313,#314,#315);
#285=EDGE_LOOP('',(#316,#317,#318));
#286=AXIS2_PLACEMENT_3D('',#319,#320,#321);
#287=EDGE_LOOP('',(#322,#323,#324,#325));
#288=AXIS2_PLACEMENT_3D('',#326,#327,#328);
#289=EDGE_LOOP('',(#329,#330,#331,#332,#333,#334,#335));
#290=AXIS2_PLACEMENT_3D('',#336,#337,#338);
#291=EDGE_LOOP('',(#339,#340,#341,#342));
#292=AXIS2_PLACEMENT_3D('',#343,#344,#345);
#293=EDGE_LOOP('',(#346,#347,#348,#349));
#294=AXIS2_PLACEMENT_3D('',#350,#351,#352);
#295=EDGE_LOOP('',(#353,#354,#355,#356));
#296=AXIS2_PLACEMENT_3D('',#357,#358,#359);
#297=EDGE_LOOP('',(#360,#361,#362,#363,#364,#365,#366));
#298=AXIS2_PLACEMENT_3D('',#367,#368,#369);
#299=EDGE_LOOP('',(#370,#371,#372,#373,#374,#375,#376));
#300=AXIS2_PLACEMENT_3D('',#377,#378,#379);
#301=EDGE_LOOP('',(#380,#381,#382,#383));
#302=AXIS2_PLACEMENT_3D('',#384,#385,#386);
#303=EDGE_LOOP('',(#387,#388,#389,#390));
#304=AXIS2_PLACEMENT_3D('',#391,#392,#393);
#305=EDGE_LOOP('',(#394,#395,#396,#397));
#306=AXIS2_PLACEMENT_3D('',#398,#399,#400);
#307=EDGE_LOOP('',(#401,#402,#403,#404));
#308=AXIS2_PLACEMENT_3D('',#405,#406,#407);
#309=ORIENTED_EDGE('',*,*,#408,.F.);
#310=ORIENTED_EDGE('',*,*,#409,.F.);
#311=ORIENTED_EDGE('',*,*,#410,.F.);
#312=ORIENTED_EDGE('',*,*,#411,.F.);
#313=CARTESIAN_POINT('',(42.0,42.0,0.0));
#314=DIRECTION('',(0.0,0.0,1.0));
#315=DIRECTION('',(1.0,0.0,0.0));
#316=ORIENTED_EDGE('',*,*,#410,.T.);
#317=ORIENTED_EDGE('',*,*,#412,.T.);
#318=ORIENTED_EDGE('',*,*,#413,.F.);
#319=CARTESIAN_POINT('',(42.0,42.0,42.0));
#320=DIRECTION('',(0.0,1.0,0.0));
#321=DIRECTION('',(0.0,0.0,1.0));
#322=ORIENTED_EDGE('',*,*,#414,.F.);
#323=ORIENTED_EDGE('',*,*,#415,.F.);
#324=ORIENTED_EDGE('',*,*,#412,.F.);
#325=ORIENTED_EDGE('',*,*,#416,.F.);
#326=CARTESIAN_POINT('',(22.5,42.0,42.0));
#327=DIRECTION('',(1.0,0.0,0.0));
#328=DIRECTION('',(0.0,0.0,-1.0));
#329=ORIENTED_EDGE('',*,*,#417,.F.);
#330=ORIENTED_EDGE('',*,*,#408,.T.);
#331=ORIENTED_EDGE('',*,*,#418,.F.);
#332=ORIENTED_EDGE('',*,*,#419,.F.);
#333=ORIENTED_EDGE('',*,*,#420,.T.);
#334=ORIENTED_EDGE('',*,*,#421,.T.);
#335=ORIENTED_EDGE('',*,*,#422,.F.);
#336=CARTESIAN_POINT('',(22.5,22.5,0.0));
#337=DIRECTION('',(0.0,0.0,-1.0));
#338=DIRECTION('',(-1.0,0.0,0.0));
#339=ORIENTED_EDGE('',*,*,#423,.F.);
#340=ORIENTED_EDGE('',*,*,#424,.T.);
#341=ORIENTED_EDGE('',*,*,#415,.T.);
#342=ORIENTED_EDGE('',*,*,#425,.F.);
#343=CARTESIAN_POINT('',(22.5,22.5,45.0));
#344=DIRECTION('',(0.0,0.0,1.0));
#345=DIRECTION('',(1.0,0.0,0.0));
#346=ORIENTED_EDGE('',*,*,#411,.T.);
#347=ORIENTED_EDGE('',*,*,#426,.T.);
#348=ORIENTED_EDGE('',*,*,#427,.F.);
#349=ORIENTED_EDGE('',*,*,#418,.T.);
#350=CARTESIAN_POINT('',(45.0,22.5,0.0));
#351=DIRECTION('',(1.0,0.0,0.0));
#352=DIRECTION('',(0.0,0.0,-1.0));
#353=ORIENTED_EDGE('',*,*,#416,.T.);
#354=ORIENTED_EDGE('',*,*,#409,.T.);
#355=ORIENTED_EDGE('',*,*,#417,.T.);
#356=ORIENTED_EDGE('',*,*,#428,.T.);
#357=CARTESIAN_POINT('',(22.5,45.0,0.0));
#358=DIRECTION('',(0.0,1.0,0.0));
#359=DIRECTION('',(0.0,0.0,1.0));
#360=ORIENTED_EDGE('',*,*,#425,.T.);
#361=ORIENTED_EDGE('',*,*,#414,.T.);
#362=ORIENTED_EDGE('',*,*,#428,.F.);
#363=ORIENTED_EDGE('',*,*,#422,.T.);
#364=ORIENTED_EDGE('',*,*,#429,.T.);
#365=ORIENTED_EDGE('',*,*,#430,.F.);
#366=ORIENTED_EDGE('',*,*,#431,.T.);
#367=CARTESIAN_POINT('',(0.0,22.5,0.0));
#368=DIRECTION('',(-1.0,0.0,0.0));
#369=DIRECTION('',(0.0,0.0,1.0));
#370=ORIENTED_EDGE('',*,*,#427,.T.);
#371=ORIENTED_EDGE('',*,*,#432,.T.);
#372=ORIENTED_EDGE('',*,*,#423,.T.);
#373=ORIENTED_EDGE('',*,*,#431,.F.);
#374=ORIENTED_EDGE('',*,*,#433,.F.);
#375=ORIENTED_EDGE('',*,*,#434,.F.);
#376=ORIENTED_EDGE('',*,*,#419,.T.);
#377=CARTESIAN_POINT('',(22.5,0.0,0.0));
#378=DIRECTION('',(0.0,-1.0,0.0));
#379=DIRECTION('',(0.0,0.0,-1.0));
#380=ORIENTED_EDGE('',*,*,#413,.T.);
#381=ORIENTED_EDGE('',*,*,#424,.F.);
#382=ORIENTED_EDGE('',*,*,#432,.F.);
#383=ORIENTED_EDGE('',*,*,#426,.F.);
#384=CARTESIAN_POINT('',(42.0,22.5,42.0));
#385=DIRECTION('',(0.0,-1.0,0.0));
#386=DIRECTION('',(0.0,0.0,-1.0));
#387=ORIENTED_EDGE('',*,*,#433,.T.);
#388=ORIENTED_EDGE('',*,*,#430,.T.);
#389=ORIENTED_EDGE('',*,*,#435,.T.);
#390=ORIENTED_EDGE('',*,*,#436,.T.);
#391=CARTESIAN_POINT('',(22.5,22.5,42.0));
#392=DIRECTION('',(0.0,0.0,1.0));
#393=DIRECTION('',(1.0,0.0,0.0));
#394=ORIENTED_EDGE('',*,*,#429,.F.);
#395=ORIENTED_EDGE('',*,*,#421,.F.);
#396=ORIENTED_EDGE('',*,*,#437,.T.);
#397=ORIENTED_EDGE('',*,*,#435,.F.);
#398=CARTESIAN_POINT('',(22.5,42.0,0.0));
#399=DIRECTION('',(0.0,1.0,0.0));
#400=DIRECTION('',(0.0,0.0,1.0));
#401=ORIENTED_EDGE('',*,*,#420,.F.);
#402=ORIENTED_EDGE('',*,*,#434,.T.);
#403=ORIENTED_EDGE('',*,*,#436,.F.);
#404=ORIENTED_EDGE('',*,*,#437,.F.);
#405=CARTESIAN_POINT('',(42.0,22.5,0.0));
#406=DIRECTION('',(1.0,0.0,0.0));
#407=DIRECTION('',(0.0,0.0,-1.0));
#408=EDGE_CURVE('',#438,#439,#440,.T.);
#409=EDGE_CURVE('',#441,#438,#442,.F.);
#410=EDGE_CURVE('',#443,#441,#444,.T.);
#411=EDGE_CURVE('',#439,#443,#445,.T.);
#412=EDGE_CURVE('',#441,#446,#447,.T.);
#413=EDGE_CURVE('',#443,#446,#448,.F.);
#414=EDGE_CURVE('',#449,#450,#451,.T.);
#415=EDGE_CURVE('',#446,#449,#452,.F.);
#416=EDGE_CURVE('',#450,#441,#453,.T.);
#417=EDGE_CURVE('',#438,#454,#455,.T.);
#418=EDGE_CURVE('',#456,#439,#457,.T.);
#419=EDGE_CURVE('',#458,#456,#459,.T.);
#420=EDGE_CURVE('',#458,#460,#461,.T.);
#421=EDGE_CURVE('',#460,#462,#463,.T.);
#422=EDGE_CURVE('',#454,#462,#464,.T.);
#423=EDGE_CURVE('',#465,#466,#467,.T.);
#424=EDGE_CURVE('',#465,#446,#468,.F.);
#425=EDGE_CURVE('',#466,#449,#469,.T.);
#426=EDGE_CURVE('',#443,#470,#471,.T.);
#427=EDGE_CURVE('',#456,#470,#472,.T.);
#428=EDGE_CURVE('',#454,#450,#473,.T.);
#429=EDGE_CURVE('',#462,#474,#475,.T.);
#430=EDGE_CURVE('',#476,#474,#477,.T.);
#431=EDGE_CURVE('',#476,#466,#478,.T.);
#432=EDGE_CURVE('',#470,#465,#479,.T.);
#433=EDGE_CURVE('',#480,#476,#481,.T.);
#434=EDGE_CURVE('',#458,#480,#482,.T.);
#435=EDGE_CURVE('',#474,#483,#484,.T.);
#436=EDGE_CURVE('',#483,#480,#485,.T.);
#437=EDGE_CURVE('',#460,#483,#486,.T.);
#438=VERTEX_POINT('',#487);
#439=VERTEX_POINT('',#488);
#440=CIRCLE('',#489,3.0);
#441=VERTEX_POINT('',#490);
#442=LINE('',#491,#492);
#443=VERTEX_POINT('',#493);
#444=CIRCLE('',#494,3.0);
#445=LINE('',#495,#496);
#446=VERTEX_POINT('',#497);
#447=CIRCLE('',#498,3.0);
#448=CIRCLE('',#499,3.0);
#449=VERTEX_POINT('',#500);
#450=VERTEX_POINT('',#501);
#451=CIRCLE('',#502,3.0);
#452=LINE('',#503,#504);
#453=LINE('',#505,#506);
#454=VERTEX_POINT('',#507);
#455=LINE('',#508,#509);
#456=VERTEX_POINT('',#510);
#457=LINE('',#511,#512);
#458=VERTEX_POINT('',#513);
#459=LINE('',#514,#515);
#460=VERTEX_POINT('',#516);
#461=LINE('',#517,#518);
#462=VERTEX_POINT('',#519);
#463=LINE('',#520,#521);
#464=LINE('',#522,#523);
#465=VERTEX_POINT('',#524);
#466=VERTEX_POINT('',#525);
#467=LINE('',#526,#527);
#468=LINE('',#528,#529);
#469=LINE('',#530,#531);
#470=VERTEX_POINT('',#532);
#471=LINE('',#533,#534);
#472=LINE('',#535,#536);
#473=LINE('',#537,#538);
#474=VERTEX_POINT('',#539);
#475=LINE('',#540,#541);
#476=VERTEX_POINT('',#542);
#477=LINE('',#543,#544);
#478=LINE('',#545,#546);
#479=CIRCLE('',#547,3.0);
#480=VERTEX_POINT('',#548);
#481=LINE('',#549,#550);
#482=LINE('',#551,#552);
#483=VERTEX_POINT('',#553);
#484=LINE('',#554,#555);
#485=LINE('',#556,#557);
#486=LINE('',#558,#559);
#487=CARTESIAN_POINT('',(42.0,45.0,0.0));
#488=CARTESIAN_POINT('',(45.0,42.0,0.0));
#489=AXIS2_PLACEMENT_3D('',#560,#561,#562);
#490=CARTESIAN_POINT('',(42.0,45.0,42.0));
#491=CARTESIAN_POINT('',(42.0,45.0,0.0));
#492=VECTOR('',#563,1.0);
#493=CARTESIAN_POINT('',(45.0,42.0,42.0));
#494=AXIS2_PLACEMENT_3D('',#564,#565,#566);
#495=CARTESIAN_POINT('',(45.0,42.0,0.0));
#496=VECTOR('',#567,1.0);
#497=CARTESIAN_POINT('',(42.0,42.0,45.0));
#498=AXIS2_PLACEMENT_3D('',#568,#569,#570);
#499=AXIS2_PLACEMENT_3D('',#571,#572,#573);
#500=CARTESIAN_POINT('',(0.0,42.0,45.0));
#501=CARTESIAN_POINT('',(0.0,45.0,42.0));
#502=AXIS2_PLACEMENT_3D('',#574,#575,#576);
#503=CARTESIAN_POINT('',(22.5,42.0,45.0));
#504=VECTOR('',#577,1.0);
#505=CARTESIAN_POINT('',(22.5,45.0,42.0));
#506=VECTOR('',#578,1.0);
#507=CARTESIAN_POINT('',(0.0,45.0,0.0));
#508=CARTESIAN_POINT('',(22.5,45.0,0.0));
#509=VECTOR('',#579,1.0);
#510=CARTESIAN_POINT('',(45.0,0.0,0.0));
#511=CARTESIAN_POINT('',(45.0,22.5,0.0));
#512=VECTOR('',#580,1.0);
#513=CARTESIAN_POINT('',(42.0,0.0,0.0));
#514=CARTESIAN_POINT('',(22.5,0.0,0.0));
#515=VECTOR('',#581,1.0);
#516=CARTESIAN_POINT('',(42.0,42.0,0.0));
#517=CARTESIAN_POINT('',(42.0,22.5,0.0));
#518=VECTOR('',#582,1.0);
#519=CARTESIAN_POINT('',(0.0,42.0,0.0));
#520=CARTESIAN_POINT('',(22.5,42.0,0.0));
#521=VECTOR('',#583,1.0);
#522=CARTESIAN_POINT('',(0.0,22.5,0.0));
#523=VECTOR('',#584,1.0);
#524=CARTESIAN_POINT('',(42.0,0.0,45.0));
#525=CARTESIAN_POINT('',(0.0,0.0,45.0));
#526=CARTESIAN_POINT('',(22.5,0.0,45.0));
#527=VECTOR('',#585,1.0);
#528=CARTESIAN_POINT('',(42.0,22.5,45.0));
#529=VECTOR('',#586,1.0);
#530=CARTESIAN_POINT('',(0.0,22.5,45.0));
#531=VECTOR('',#587,1.0);
#532=CARTESIAN_POINT('',(45.0,0.0,42.0));
#533=CARTESIAN_POINT('',(45.0,22.5,42.0));
#534=VECTOR('',#588,1.0);
#535=CARTESIAN_POINT('',(45.0,0.0,0.0));
#536=VECTOR('',#589,1.0);
#537=CARTESIAN_POINT('',(0.0,45.0,0.0));
#538=VECTOR('',#590,1.0);
#539=CARTESIAN_POINT('',(0.0,42.0,42.0));
#540=CARTESIAN_POINT('',(0.0,42.0,0.0));
#541=VECTOR('',#591,1.0);
#542=CARTESIAN_POINT('',(0.0,0.0,42.0));
#543=CARTESIAN_POINT('',(0.0,22.5,42.0));
#544=VECTOR('',#592,1.0);
#545=CARTESIAN_POINT('',(0.0,0.0,0.0));
#546=VECTOR('',#593,1.0);
#547=AXIS2_PLACEMENT_3D('',#594,#595,#596);
#548=CARTESIAN_POINT('',(42.0,0.0,42.0));
#549=CARTESIAN_POINT('',(22.5,0.0,42.0));
#550=VECTOR('',#597,1.0);
#551=CARTESIAN_POINT('',(42.0,0.0,0.0));
#552=VECTOR('',#598,1.0);
#553=CARTESIAN_POINT('',(42.0,42.0,42.0));
#554=CARTESIAN_POINT('',(22.5,42.0,42.0));
#555=VECTOR('',#599,1.0);
#556=CARTESIAN_POINT('',(42.0,22.5,42.0));
#557=VECTOR('',#600,1.0);
#558=CARTESIAN_POINT('',(42.0,42.0,0.0));
#559=VECTOR('',#601,1.0);
#560=CARTESIAN_POINT('',(42.0,42.0,0.0));
#561=DIRECTION('',(0.0,0.0,-1.0));
#562=DIRECTION('',(-1.0,0.0,0.0));
#563=DIRECTION('',(0.0,0.0,1.0));
#564=CARTESIAN_POINT('',(42.0,42.0,42.0));
#565=DIRECTION('',(0.0,0.0,1.0));
#566=DIRECTION('',(1.0,0.0,0.0));
#567=DIRECTION('',(0.0,0.0,1.0));
#568=CARTESIAN_POINT('',(42.0,42.0,42.0));
#569=DIRECTION('',(1.0,0.0,0.0));
#570=DIRECTION('',(0.0,0.0,-1.0));
#571=CARTESIAN_POINT('',(42.0,42.0,42.0));
#572=DIRECTION('',(0.0,1.0,0.0));
#573=DIRECTION('',(0.0,0.0,1.0));
#574=CARTESIAN_POINT('',(0.0,42.0,42.0));
#575=DIRECTION('',(-1.0,0.0,0.0));
#576=DIRECTION('',(0.0,0.0,1.0));
#577=DIRECTION('',(1.0,0.0,0.0));
#578=DIRECTION('',(1.0,0.0,0.0));
#579=DIRECTION('',(-1.0,0.0,0.0));
#580=DIRECTION('',(0.0,1.0,0.0));
#581=DIRECTION('',(1.0,0.0,0.0));
#582=DIRECTION('',(0.0,1.0,0.0));
#583=DIRECTION('',(-1.0,0.0,0.0));
#584=DIRECTION('',(0.0,-1.0,0.0));
#585=DIRECTION('',(-1.0,0.0,0.0));
#586=DIRECTION('',(0.0,-1.0,0.0));
#587=DIRECTION('',(0.0,1.0,0.0));
#588=DIRECTION('',(0.0,-1.0,0.0));
#589=DIRECTION('',(0.0,0.0,1.0));
#590=DIRECTION('',(0.0,0.0,1.0));
#591=DIRECTION('',(0.0,0.0,1.0));
#592=DIRECTION('',(0.0,1.0,0.0));
#593=DIRECTION('',(0.0,0.0,1.0));
#594=CARTESIAN_POINT('',(42.0,0.0,42.0));
#595=DIRECTION('',(0.0,-1.0,0.0));
#596=DIRECTION('',(0.0,0.0,-1.0));
#597=DIRECTION('',(-1.0,0.0,0.0));
#598=DIRECTION('',(0.0,0.0,1.0));
#599=DIRECTION('',(1.0,0.0,0.0));
#600=DIRECTION('',(0.0,-1.0,0.0));
#601=DIRECTION('',(0.0,0.0,1.0));
ENDSEC;
END-ISO-10303-21;
