ISO-10303-21;
HEADER;
FILE_DESCRIPTION(('STEP AP203'),'1');
FILE_NAME('MOOV08H1004.stp','2025-04-15T07:00:10',(' '),(' '),'Spatial InterOp 3D',' ',' ');
FILE_SCHEMA(('CONFIG_CONTROL_DESIGN'));
ENDSEC;
DATA;
#1=DESIGN_CONTEXT('',#57,'design');
#2=APPLICATION_PROTOCOL_DEFINITION('INTERNATIONAL STANDARD','config_control_design',1994,#57);
#3=PRODUCT_CATEGORY_RELATIONSHIP('NONE','NONE',#58,#59);
#4=DATE_AND_TIME(#60,#61);
#5=DATE_TIME_ROLE('creation_date');
#6=DATE_TIME_ROLE('classification_date');
#7=PERSON_AND_ORGANIZATION_ROLE('creator');
#8=PERSON_AND_ORGANIZATION_ROLE('design_supplier');
#9=PERSON_AND_ORGANIZATION_ROLE('classification_officer');
#10=PERSON_AND_ORGANIZATION_ROLE('design_owner');
#11=APPROVAL_PERSON_ORGANIZATION(#62,#63,#64);
#12=APPROVAL_DATE_TIME(#4,#63);
#13=CC_DESIGN_APPROVAL(#63,(#65,#66,#67));
#14=CC_DESIGN_DATE_AND_TIME_ASSIGNMENT(#4,#5,(#67));
#15=CC_DESIGN_DATE_AND_TIME_ASSIGNMENT(#4,#6,(#65));
#16=CC_DESIGN_PERSON_AND_ORGANIZATION_ASSIGNMENT(#62,#10,(#68));
#17=CC_DESIGN_PERSON_AND_ORGANIZATION_ASSIGNMENT(#62,#7,(#67));
#18=CC_DESIGN_PERSON_AND_ORGANIZATION_ASSIGNMENT(#62,#7,(#66));
#19=CC_DESIGN_PERSON_AND_ORGANIZATION_ASSIGNMENT(#62,#8,(#66));
#20=CC_DESIGN_SECURITY_CLASSIFICATION(#65,(#66));
#21=CC_DESIGN_PERSON_AND_ORGANIZATION_ASSIGNMENT(#62,#9,(#65));
#22=SHAPE_DEFINITION_REPRESENTATION(#69,#70);
#23= (GEOMETRIC_REPRESENTATION_CONTEXT(3)GLOBAL_UNCERTAINTY_ASSIGNED_CONTEXT((#73))GLOBAL_UNIT_ASSIGNED_CONTEXT((#75,#76,#77))REPRESENTATION_CONTEXT('NONE','WORKSPACE'));
#24=PROPERTY_DEFINITION_REPRESENTATION(#79,#80);
#25=GENERAL_PROPERTY_ASSOCIATION('','',#81,#79);
#26=PROPERTY_DEFINITION_REPRESENTATION(#82,#83);
#27=GENERAL_PROPERTY_ASSOCIATION('','',#84,#82);
#28=PROPERTY_DEFINITION_REPRESENTATION(#85,#86);
#29=GENERAL_PROPERTY_ASSOCIATION('','',#87,#85);
#30=PROPERTY_DEFINITION_REPRESENTATION(#88,#89);
#31=GENERAL_PROPERTY_ASSOCIATION('','',#90,#88);
#32=PROPERTY_DEFINITION_REPRESENTATION(#91,#92);
#33=GENERAL_PROPERTY_ASSOCIATION('','',#93,#91);
#34=PROPERTY_DEFINITION_REPRESENTATION(#94,#95);
#35=GENERAL_PROPERTY_ASSOCIATION('','',#96,#94);
#36=PROPERTY_DEFINITION_REPRESENTATION(#97,#98);
#37=GENERAL_PROPERTY_ASSOCIATION('','',#99,#97);
#38=PROPERTY_DEFINITION_REPRESENTATION(#100,#101);
#39=GENERAL_PROPERTY_ASSOCIATION('','',#102,#100);
#40=PROPERTY_DEFINITION_REPRESENTATION(#103,#104);
#41=GENERAL_PROPERTY_ASSOCIATION('','',#105,#103);
#42=PROPERTY_DEFINITION_REPRESENTATION(#106,#107);
#43=GENERAL_PROPERTY_ASSOCIATION('','',#108,#106);
#44=PROPERTY_DEFINITION_REPRESENTATION(#109,#110);
#45=GENERAL_PROPERTY_ASSOCIATION('','',#111,#109);
#46=PROPERTY_DEFINITION_REPRESENTATION(#112,#113);
#47=GENERAL_PROPERTY_ASSOCIATION('','',#114,#112);
#48=PROPERTY_DEFINITION_REPRESENTATION(#115,#116);
#49=GENERAL_PROPERTY_ASSOCIATION('','',#117,#115);
#50=PROPERTY_DEFINITION_REPRESENTATION(#118,#119);
#51=GENERAL_PROPERTY_ASSOCIATION('','',#120,#118);
#52=PROPERTY_DEFINITION_REPRESENTATION(#121,#122);
#53=GENERAL_PROPERTY_ASSOCIATION('','',#123,#121);
#57=APPLICATION_CONTEXT('CONFIGURATION CONTROLLED 3D DESIGNS OF MECHANICAL PARTS AND ASSEMBLIES');
#58=PRODUCT_CATEGORY('part','NONE');
#59=PRODUCT_RELATED_PRODUCT_CATEGORY('detail',' ',(#68));
#60=CALENDAR_DATE(2025,15,3);
#61=LOCAL_TIME(9,0,10.0,#124);
#62=PERSON_AND_ORGANIZATION(#125,#126);
#63=APPROVAL(#127,'SOLID MODEL');
#64=APPROVAL_ROLE('APPROVED');
#65=SECURITY_CLASSIFICATION('','',#128);
#66=PRODUCT_DEFINITION_FORMATION_WITH_SPECIFIED_SOURCE('A','NONE',#68,.NOT_KNOWN.);
#67=PRODUCT_DEFINITION('','NONE',#66,#1);
#68=PRODUCT('Arbre D14','%#@![CATALOGUE - PREFIXE=MOOV][CATALOGUE - GAMME=08][CATALOGUE - LETTRE=H][CATALOGUE - ID=1004]','Arbre D14',(#129));
#69=PRODUCT_DEFINITION_SHAPE('NONE','NONE',#67);
#70=ADVANCED_BREP_SHAPE_REPRESENTATION('1',(#130,#131),#23);
#73=UNCERTAINTY_MEASURE_WITH_UNIT(LENGTH_MEASURE(0.001),#75,'','');
#75= (CONVERSION_BASED_UNIT('MILLIMETRE',#134)LENGTH_UNIT()NAMED_UNIT(#137));
#76= (NAMED_UNIT(#139)PLANE_ANGLE_UNIT()SI_UNIT($,.RADIAN.));
#77= (NAMED_UNIT(#139)SOLID_ANGLE_UNIT()SI_UNIT($,.STERADIAN.));
#79=PROPERTY_DEFINITION('PdmObjectId','',#67);
#80=REPRESENTATION('',(#145),#23);
#81=GENERAL_PROPERTY('','37_bcd0e16d-2a78-4e7d-bda2-93648e70605d&5_44_0_34','');
#82=PROPERTY_DEFINITION('GammeProfil','',#67);
#83=REPRESENTATION('',(#146),#23);
#84=GENERAL_PROPERTY('','h840','');
#85=PROPERTY_DEFINITION('LigneProfil','',#67);
#86=REPRESENTATION('',(#147),#23);
#87=GENERAL_PROPERTY('','8-40','');
#88=PROPERTY_DEFINITION('Type de production hellomoov','',#67);
#89=REPRESENTATION('',(#148),#23);
#90=GENERAL_PROPERTY('','d\X2\00E9\X0\bit interne avec/sans usinage interne','');
#91=PROPERTY_DEFINITION('DESIGNATION_ENG','',#67);
#92=REPRESENTATION('',(#149),#23);
#93=GENERAL_PROPERTY('','-','');
#94=PROPERTY_DEFINITION('CODE_TRANSEPT','',#67);
#95=REPRESENTATION('',(#150),#23);
#96=GENERAL_PROPERTY('','PP40X4','');
#97=PROPERTY_DEFINITION('CATALOGUE - PREFIXE','',#67);
#98=REPRESENTATION('',(#151),#23);
#99=GENERAL_PROPERTY('','MOOV','');
#100=PROPERTY_DEFINITION('CATALOGUE - GAMME','',#67);
#101=REPRESENTATION('',(#152),#23);
#102=GENERAL_PROPERTY('','08','');
#103=PROPERTY_DEFINITION('CATALOGUE - LETTRE','',#67);
#104=REPRESENTATION('',(#153),#23);
#105=GENERAL_PROPERTY('','H','');
#106=PROPERTY_DEFINITION('CATALOGUE - ID','',#67);
#107=REPRESENTATION('',(#154),#23);
#108=GENERAL_PROPERTY('','1004','');
#109=PROPERTY_DEFINITION('D\X2\00E9\X0\signation du mat\X2\00E9\X0\riau','',#67);
#110=REPRESENTATION('',(#155),#23);
#111=GENERAL_PROPERTY('','Steel','');
#112=PROPERTY_DEFINITION('Nom du mat\X2\00E9\X0\riau','',#67);
#113=REPRESENTATION('',(#156),#23);
#114=GENERAL_PROPERTY('','Steel','');
#115=PROPERTY_DEFINITION('Manufacturer','',#67);
#116=REPRESENTATION('',(#157),#23);
#117=GENERAL_PROPERTY('','HELLOMOOV','');
#118=PROPERTY_DEFINITION('CreationDate','',#67);
#119=REPRESENTATION('',(#158),#23);
#120=GENERAL_PROPERTY('','30/08/2023 09:16:54','');
#121=PROPERTY_DEFINITION('Minor Revision','',#67);
#122=REPRESENTATION('',(#159),#23);
#123=GENERAL_PROPERTY('','0','');
#124=COORDINATED_UNIVERSAL_TIME_OFFSET(1,0,.AHEAD.);
#125=PERSON('','UNSPECIFIED',$,$,$,$);
#126=ORGANIZATION('UNSPECIFIED','UNSPECIFIED','UNSPECIFIED');
#127=APPROVAL_STATUS('approved');
#128=SECURITY_CLASSIFICATION_LEVEL('unclassified');
#129=MECHANICAL_CONTEXT('',#57,'mechanical');
#130=MANIFOLD_SOLID_BREP('1',#160);
#131=AXIS2_PLACEMENT_3D('',#161,#162,#163);
#134=LENGTH_MEASURE_WITH_UNIT(LENGTH_MEASURE(1.0),#164);
#137=DIMENSIONAL_EXPONENTS(1.0,0.0,0.0,0.0,0.0,0.0,0.0);
#139=DIMENSIONAL_EXPONENTS(0.0,0.0,0.0,0.0,0.0,0.0,0.0);
#145=DESCRIPTIVE_REPRESENTATION_ITEM('','37_bcd0e16d-2a78-4e7d-bda2-93648e70605d&5_44_0_34');
#146=DESCRIPTIVE_REPRESENTATION_ITEM('','h840');
#147=DESCRIPTIVE_REPRESENTATION_ITEM('','8-40');
#148=DESCRIPTIVE_REPRESENTATION_ITEM('','d\X2\00E9\X0\bit interne avec/sans usinage interne');
#149=DESCRIPTIVE_REPRESENTATION_ITEM('','-');
#150=DESCRIPTIVE_REPRESENTATION_ITEM('','PP40X4');
#151=DESCRIPTIVE_REPRESENTATION_ITEM('','MOOV');
#152=DESCRIPTIVE_REPRESENTATION_ITEM('','08');
#153=DESCRIPTIVE_REPRESENTATION_ITEM('','H');
#154=DESCRIPTIVE_REPRESENTATION_ITEM('','1004');
#155=DESCRIPTIVE_REPRESENTATION_ITEM('','Steel');
#156=DESCRIPTIVE_REPRESENTATION_ITEM('','Steel');
#157=DESCRIPTIVE_REPRESENTATION_ITEM('','HELLOMOOV');
#158=DESCRIPTIVE_REPRESENTATION_ITEM('','30/08/2023 09:16:54');
#159=DESCRIPTIVE_REPRESENTATION_ITEM('','0');
#160=CLOSED_SHELL('',(#165,#166,#167));
#161=CARTESIAN_POINT('',(0.0,0.0,0.0));
#162=DIRECTION('',(0.0,0.0,1.0));
#163=DIRECTION('',(1.0,0.0,0.0));
#164= (NAMED_UNIT(#137)LENGTH_UNIT()SI_UNIT(.MILLI.,.METRE.));
#165=ADVANCED_FACE('',(#169,#170),#171,.T.);
#166=ADVANCED_FACE('',(#172),#173,.F.);
#167=ADVANCED_FACE('',(#174),#175,.T.);
#169=FACE_OUTER_BOUND('',#176,.T.);
#170=FACE_OUTER_BOUND('',#177,.T.);
#171=CYLINDRICAL_SURFACE('',#178,7.0);
#172=FACE_OUTER_BOUND('',#179,.T.);
#173=PLANE('',#180);
#174=FACE_OUTER_BOUND('',#181,.T.);
#175=PLANE('',#182);
#176=EDGE_LOOP('',(#183));
#177=EDGE_LOOP('',(#184));
#178=AXIS2_PLACEMENT_3D('',#185,#186,#187);
#179=EDGE_LOOP('',(#188));
#180=AXIS2_PLACEMENT_3D('',#189,#190,#191);
#181=EDGE_LOOP('',(#192));
#182=AXIS2_PLACEMENT_3D('',#193,#194,#195);
#183=ORIENTED_EDGE('',*,*,#196,.T.);
#184=ORIENTED_EDGE('',*,*,#197,.F.);
#185=CARTESIAN_POINT('',(0.0,0.0,-25.0));
#186=DIRECTION('',(0.0,0.0,1.0));
#187=DIRECTION('',(1.0,0.0,0.0));
#188=ORIENTED_EDGE('',*,*,#196,.F.);
#189=CARTESIAN_POINT('',(0.0,0.0,-25.0));
#190=DIRECTION('',(0.0,0.0,1.0));
#191=DIRECTION('',(1.0,0.0,0.0));
#192=ORIENTED_EDGE('',*,*,#197,.T.);
#193=CARTESIAN_POINT('',(0.0,0.0,25.0));
#194=DIRECTION('',(0.0,0.0,1.0));
#195=DIRECTION('',(1.0,0.0,0.0));
#196=EDGE_CURVE('',#198,#198,#199,.T.);
#197=EDGE_CURVE('',#200,#200,#201,.T.);
#198=VERTEX_POINT('',#202);
#199=CIRCLE('',#203,7.0);
#200=VERTEX_POINT('',#204);
#201=CIRCLE('',#205,7.0);
#202=CARTESIAN_POINT('',(7.0,0.0,-25.0));
#203=AXIS2_PLACEMENT_3D('',#206,#207,#208);
#204=CARTESIAN_POINT('',(7.0,0.0,25.0));
#205=AXIS2_PLACEMENT_3D('',#209,#210,#211);
#206=CARTESIAN_POINT('',(0.0,0.0,-25.0));
#207=DIRECTION('',(0.0,0.0,1.0));
#208=DIRECTION('',(1.0,0.0,0.0));
#209=CARTESIAN_POINT('',(0.0,0.0,25.0));
#210=DIRECTION('',(0.0,0.0,1.0));
#211=DIRECTION('',(1.0,0.0,0.0));
ENDSEC;
END-ISO-10303-21;
