ISO-10303-21;
HEADER;
FILE_DESCRIPTION(('STEP AP203'),'1');
FILE_NAME('SAFE00H1517.stp','2025-04-15T07:31:32',(' '),(' '),'Spatial InterOp 3D',' ',' ');
FILE_SCHEMA(('CONFIG_CONTROL_DESIGN'));
ENDSEC;
DATA;
#1=DESIGN_CONTEXT('',#71,'design');
#2=APPLICATION_PROTOCOL_DEFINITION('INTERNATIONAL STANDARD','config_control_design',1994,#71);
#3=PRODUCT_CATEGORY_RELATIONSHIP('NONE','NONE',#72,#73);
#4=DATE_AND_TIME(#74,#75);
#5=DATE_TIME_ROLE('creation_date');
#6=DATE_TIME_ROLE('classification_date');
#7=PERSON_AND_ORGANIZATION_ROLE('creator');
#8=PERSON_AND_ORGANIZATION_ROLE('design_supplier');
#9=PERSON_AND_ORGANIZATION_ROLE('classification_officer');
#10=PERSON_AND_ORGANIZATION_ROLE('design_owner');
#11=APPROVAL_PERSON_ORGANIZATION(#76,#77,#78);
#12=APPROVAL_DATE_TIME(#4,#77);
#13=CC_DESIGN_APPROVAL(#77,(#79,#80,#81));
#14=CC_DESIGN_DATE_AND_TIME_ASSIGNMENT(#4,#5,(#81));
#15=CC_DESIGN_DATE_AND_TIME_ASSIGNMENT(#4,#6,(#79));
#16=CC_DESIGN_PERSON_AND_ORGANIZATION_ASSIGNMENT(#76,#10,(#82));
#17=CC_DESIGN_PERSON_AND_ORGANIZATION_ASSIGNMENT(#76,#7,(#81));
#18=CC_DESIGN_PERSON_AND_ORGANIZATION_ASSIGNMENT(#76,#7,(#80));
#19=CC_DESIGN_PERSON_AND_ORGANIZATION_ASSIGNMENT(#76,#8,(#80));
#20=CC_DESIGN_SECURITY_CLASSIFICATION(#79,(#80));
#21=CC_DESIGN_PERSON_AND_ORGANIZATION_ASSIGNMENT(#76,#9,(#79));
#22=SHAPE_DEFINITION_REPRESENTATION(#83,#84);
#23= (GEOMETRIC_REPRESENTATION_CONTEXT(3)GLOBAL_UNCERTAINTY_ASSIGNED_CONTEXT((#87))GLOBAL_UNIT_ASSIGNED_CONTEXT((#89,#90,#91))REPRESENTATION_CONTEXT('NONE','WORKSPACE'));
#24=PROPERTY_DEFINITION_REPRESENTATION(#93,#94);
#25=GENERAL_PROPERTY_ASSOCIATION('','',#95,#93);
#26=PROPERTY_DEFINITION_REPRESENTATION(#96,#97);
#27=GENERAL_PROPERTY_ASSOCIATION('','',#98,#96);
#28=PROPERTY_DEFINITION_REPRESENTATION(#99,#100);
#29=GENERAL_PROPERTY_ASSOCIATION('','',#101,#99);
#30=PROPERTY_DEFINITION_REPRESENTATION(#102,#103);
#31=GENERAL_PROPERTY_ASSOCIATION('','',#104,#102);
#32=PROPERTY_DEFINITION_REPRESENTATION(#105,#106);
#33=GENERAL_PROPERTY_ASSOCIATION('','',#107,#105);
#34=PROPERTY_DEFINITION_REPRESENTATION(#108,#109);
#35=GENERAL_PROPERTY_ASSOCIATION('','',#110,#108);
#36=PROPERTY_DEFINITION_REPRESENTATION(#111,#112);
#37=GENERAL_PROPERTY_ASSOCIATION('','',#113,#111);
#38=PROPERTY_DEFINITION_REPRESENTATION(#114,#115);
#39=GENERAL_PROPERTY_ASSOCIATION('','',#116,#114);
#40=PROPERTY_DEFINITION_REPRESENTATION(#117,#118);
#41=GENERAL_PROPERTY_ASSOCIATION('','',#119,#117);
#42=PROPERTY_DEFINITION_REPRESENTATION(#120,#121);
#43=GENERAL_PROPERTY_ASSOCIATION('','',#122,#120);
#44=PROPERTY_DEFINITION_REPRESENTATION(#123,#124);
#45=GENERAL_PROPERTY_ASSOCIATION('','',#125,#123);
#46=PROPERTY_DEFINITION_REPRESENTATION(#126,#127);
#47=GENERAL_PROPERTY_ASSOCIATION('','',#128,#126);
#48=PROPERTY_DEFINITION_REPRESENTATION(#129,#130);
#49=GENERAL_PROPERTY_ASSOCIATION('','',#131,#129);
#50=PROPERTY_DEFINITION_REPRESENTATION(#132,#133);
#51=GENERAL_PROPERTY_ASSOCIATION('','',#134,#132);
#52=PROPERTY_DEFINITION_REPRESENTATION(#135,#136);
#53=GENERAL_PROPERTY_ASSOCIATION('','',#137,#135);
#54=PROPERTY_DEFINITION_REPRESENTATION(#138,#139);
#55=GENERAL_PROPERTY_ASSOCIATION('','',#140,#138);
#56=PROPERTY_DEFINITION_REPRESENTATION(#141,#142);
#57=GENERAL_PROPERTY_ASSOCIATION('','',#143,#141);
#58=PROPERTY_DEFINITION_REPRESENTATION(#144,#145);
#59=GENERAL_PROPERTY_ASSOCIATION('','',#146,#144);
#60=PROPERTY_DEFINITION_REPRESENTATION(#147,#148);
#61=GENERAL_PROPERTY_ASSOCIATION('','',#149,#147);
#62=PROPERTY_DEFINITION_REPRESENTATION(#150,#151);
#63=GENERAL_PROPERTY_ASSOCIATION('','',#152,#150);
#64=PROPERTY_DEFINITION_REPRESENTATION(#153,#154);
#65=GENERAL_PROPERTY_ASSOCIATION('','',#155,#153);
#66=PROPERTY_DEFINITION_REPRESENTATION(#156,#157);
#67=GENERAL_PROPERTY_ASSOCIATION('','',#158,#156);
#71=APPLICATION_CONTEXT('CONFIGURATION CONTROLLED 3D DESIGNS OF MECHANICAL PARTS AND ASSEMBLIES');
#72=PRODUCT_CATEGORY('part','NONE');
#73=PRODUCT_RELATED_PRODUCT_CATEGORY('detail',' ',(#82));
#74=CALENDAR_DATE(2025,15,3);
#75=LOCAL_TIME(9,31,32.0,#159);
#76=PERSON_AND_ORGANIZATION(#160,#161);
#77=APPROVAL(#162,'SOLID MODEL');
#78=APPROVAL_ROLE('APPROVED');
#79=SECURITY_CLASSIFICATION('','',#163);
#80=PRODUCT_DEFINITION_FORMATION_WITH_SPECIFIED_SOURCE('A','NONE',#82,.NOT_KNOWN.);
#81=PRODUCT_DEFINITION('','NONE',#80,#1);
#82=PRODUCT('Joint','%#@![CATALOGUE - PREFIXE=SAFE][CATALOGUE - GAMME=00][CATALOGUE - LETTRE=H][CATALOGUE - ID=1517]','Joint',(#164));
#83=PRODUCT_DEFINITION_SHAPE('NONE','NONE',#81);
#84=ADVANCED_BREP_SHAPE_REPRESENTATION('1',(#165,#166),#23);
#87=UNCERTAINTY_MEASURE_WITH_UNIT(LENGTH_MEASURE(0.001),#89,'','');
#89= (CONVERSION_BASED_UNIT('MILLIMETRE',#169)LENGTH_UNIT()NAMED_UNIT(#172));
#90= (NAMED_UNIT(#174)PLANE_ANGLE_UNIT()SI_UNIT($,.RADIAN.));
#91= (NAMED_UNIT(#174)SOLID_ANGLE_UNIT()SI_UNIT($,.STERADIAN.));
#93=PROPERTY_DEFINITION('PdmObjectId','',#81);
#94=REPRESENTATION('',(#180),#23);
#95=GENERAL_PROPERTY('','37_74a76cfa-5caf-44b1-9b48-852b20fff00e&24_55_0_10','');
#96=PROPERTY_DEFINITION('LigneProfil','',#81);
#97=REPRESENTATION('',(#181),#23);
#98=GENERAL_PROPERTY('','8-40','');
#99=PROPERTY_DEFINITION('Type de production hellomoov','',#81);
#100=REPRESENTATION('',(#182),#23);
#101=GENERAL_PROPERTY('','pi\X2\00E8\X0\ce du stock','');
#102=PROPERTY_DEFINITION('ETAT_SURFACE','',#81);
#103=REPRESENTATION('',(#183),#23);
#104=GENERAL_PROPERTY('','-','');
#105=PROPERTY_DEFINITION('DESIGNATION_ENG','',#81);
#106=REPRESENTATION('',(#184),#23);
#107=GENERAL_PROPERTY('','-','');
#108=PROPERTY_DEFINITION('CODE_ELCOM','',#81);
#109=REPRESENTATION('',(#185),#23);
#110=GENERAL_PROPERTY('','-','');
#111=PROPERTY_DEFINITION('TRAITEMENT','',#81);
#112=REPRESENTATION('',(#186),#23);
#113=GENERAL_PROPERTY('','Non sp\X2\00E9\X0\cifi\X2\00E9\X0\','');
#114=PROPERTY_DEFINITION('TOLERANCES_GENERALES','',#81);
#115=REPRESENTATION('',(#187),#23);
#116=GENERAL_PROPERTY('','\X2\00E0\X0\ d\X2\00E9\X0\finir','');
#117=PROPERTY_DEFINITION('TOLERANCES_BORDS','',#81);
#118=REPRESENTATION('',(#188),#23);
#119=GENERAL_PROPERTY('','ISO 13715','');
#120=PROPERTY_DEFINITION('CODE_TRANSEPT','',#81);
#121=REPRESENTATION('',(#189),#23);
#122=GENERAL_PROPERTY('','DP84-6','');
#123=PROPERTY_DEFINITION('FOURNISSEUR2','',#81);
#124=REPRESENTATION('',(#190),#23);
#125=GENERAL_PROPERTY('','\X2\00E0\X0\ d\X2\00E9\X0\finir','');
#126=PROPERTY_DEFINITION('FOURNISSEUR','',#81);
#127=REPRESENTATION('',(#191),#23);
#128=GENERAL_PROPERTY('','\X2\00E0\X0\ d\X2\00E9\X0\finir','');
#129=PROPERTY_DEFINITION('CATALOGUE - LETTRE','',#81);
#130=REPRESENTATION('',(#192),#23);
#131=GENERAL_PROPERTY('','H','');
#132=PROPERTY_DEFINITION('CATALOGUE - PREFIXE','',#81);
#133=REPRESENTATION('',(#193),#23);
#134=GENERAL_PROPERTY('','SAFE','');
#135=PROPERTY_DEFINITION('CATALOGUE - GAMME','',#81);
#136=REPRESENTATION('',(#194),#23);
#137=GENERAL_PROPERTY('','00','');
#138=PROPERTY_DEFINITION('CATALOGUE - ID','',#81);
#139=REPRESENTATION('',(#195),#23);
#140=GENERAL_PROPERTY('','1517','');
#141=PROPERTY_DEFINITION('R\X2\00E9\X0\f\X2\00E9\X0\rence du mat\X2\00E9\X0\riau','',#81);
#142=REPRESENTATION('',(#196),#23);
#143=GENERAL_PROPERTY('','Polypropyl\X2\00E8\X0\ne TPE noir','');
#144=PROPERTY_DEFINITION('D\X2\00E9\X0\signation du mat\X2\00E9\X0\riau','',#81);
#145=REPRESENTATION('',(#197),#23);
#146=GENERAL_PROPERTY('','PP-TPE noir','');
#147=PROPERTY_DEFINITION('Nom du mat\X2\00E9\X0\riau','',#81);
#148=REPRESENTATION('',(#198),#23);
#149=GENERAL_PROPERTY('','PP-TPE noir','');
#150=PROPERTY_DEFINITION('Manufacturer','',#81);
#151=REPRESENTATION('',(#199),#23);
#152=GENERAL_PROPERTY('','HELLOMOOV','');
#153=PROPERTY_DEFINITION('CreationDate','',#81);
#154=REPRESENTATION('',(#200),#23);
#155=GENERAL_PROPERTY('','22/06/2022 10:13:58','');
#156=PROPERTY_DEFINITION('Minor Revision','',#81);
#157=REPRESENTATION('',(#201),#23);
#158=GENERAL_PROPERTY('','7','');
#159=COORDINATED_UNIVERSAL_TIME_OFFSET(1,0,.AHEAD.);
#160=PERSON('','UNSPECIFIED',$,$,$,$);
#161=ORGANIZATION('UNSPECIFIED','UNSPECIFIED','UNSPECIFIED');
#162=APPROVAL_STATUS('approved');
#163=SECURITY_CLASSIFICATION_LEVEL('unclassified');
#164=MECHANICAL_CONTEXT('',#71,'mechanical');
#165=MANIFOLD_SOLID_BREP('1',#202);
#166=AXIS2_PLACEMENT_3D('',#203,#204,#205);
#169=LENGTH_MEASURE_WITH_UNIT(LENGTH_MEASURE(1.0),#206);
#172=DIMENSIONAL_EXPONENTS(1.0,0.0,0.0,0.0,0.0,0.0,0.0);
#174=DIMENSIONAL_EXPONENTS(0.0,0.0,0.0,0.0,0.0,0.0,0.0);
#180=DESCRIPTIVE_REPRESENTATION_ITEM('','37_74a76cfa-5caf-44b1-9b48-852b20fff00e&24_55_0_10');
#181=DESCRIPTIVE_REPRESENTATION_ITEM('','8-40');
#182=DESCRIPTIVE_REPRESENTATION_ITEM('','pi\X2\00E8\X0\ce du stock');
#183=DESCRIPTIVE_REPRESENTATION_ITEM('','-');
#184=DESCRIPTIVE_REPRESENTATION_ITEM('','-');
#185=DESCRIPTIVE_REPRESENTATION_ITEM('','-');
#186=DESCRIPTIVE_REPRESENTATION_ITEM('','Non sp\X2\00E9\X0\cifi\X2\00E9\X0\');
#187=DESCRIPTIVE_REPRESENTATION_ITEM('','\X2\00E0\X0\ d\X2\00E9\X0\finir');
#188=DESCRIPTIVE_REPRESENTATION_ITEM('','ISO 13715');
#189=DESCRIPTIVE_REPRESENTATION_ITEM('','DP84-6');
#190=DESCRIPTIVE_REPRESENTATION_ITEM('','\X2\00E0\X0\ d\X2\00E9\X0\finir');
#191=DESCRIPTIVE_REPRESENTATION_ITEM('','\X2\00E0\X0\ d\X2\00E9\X0\finir');
#192=DESCRIPTIVE_REPRESENTATION_ITEM('','H');
#193=DESCRIPTIVE_REPRESENTATION_ITEM('','SAFE');
#194=DESCRIPTIVE_REPRESENTATION_ITEM('','00');
#195=DESCRIPTIVE_REPRESENTATION_ITEM('','1517');
#196=DESCRIPTIVE_REPRESENTATION_ITEM('','Polypropyl\X2\00E8\X0\ne TPE noir');
#197=DESCRIPTIVE_REPRESENTATION_ITEM('','PP-TPE noir');
#198=DESCRIPTIVE_REPRESENTATION_ITEM('','PP-TPE noir');
#199=DESCRIPTIVE_REPRESENTATION_ITEM('','HELLOMOOV');
#200=DESCRIPTIVE_REPRESENTATION_ITEM('','22/06/2022 10:13:58');
#201=DESCRIPTIVE_REPRESENTATION_ITEM('','7');
#202=CLOSED_SHELL('',(#207,#208,#209,#210,#211,#212,#213,#214,#215));
#203=CARTESIAN_POINT('',(0.0,0.0,0.0));
#204=DIRECTION('',(0.0,0.0,1.0));
#205=DIRECTION('',(1.0,0.0,0.0));
#206= (NAMED_UNIT(#172)LENGTH_UNIT()SI_UNIT(.MILLI.,.METRE.));
#207=ADVANCED_FACE('',(#217),#218,.T.);
#208=ADVANCED_FACE('',(#219),#220,.T.);
#209=ADVANCED_FACE('',(#221),#222,.T.);
#210=ADVANCED_FACE('',(#223),#224,.T.);
#211=ADVANCED_FACE('',(#225),#226,.T.);
#212=ADVANCED_FACE('',(#227),#228,.T.);
#213=ADVANCED_FACE('',(#229),#230,.T.);
#214=ADVANCED_FACE('',(#231),#232,.T.);
#215=ADVANCED_FACE('',(#233),#234,.F.);
#217=FACE_OUTER_BOUND('',#235,.T.);
#218=PLANE('',#236);
#219=FACE_OUTER_BOUND('',#237,.T.);
#220=PLANE('',#238);
#221=FACE_OUTER_BOUND('',#239,.T.);
#222=PLANE('',#240);
#223=FACE_OUTER_BOUND('',#241,.T.);
#224=PLANE('',#242);
#225=FACE_OUTER_BOUND('',#243,.T.);
#226=PLANE('',#244);
#227=FACE_OUTER_BOUND('',#245,.T.);
#228=PLANE('',#246);
#229=FACE_OUTER_BOUND('',#247,.T.);
#230=PLANE('',#248);
#231=FACE_OUTER_BOUND('',#249,.T.);
#232=PLANE('',#250);
#233=FACE_OUTER_BOUND('',#251,.T.);
#234=PLANE('',#252);
#235=EDGE_LOOP('',(#253,#254,#255,#256));
#236=AXIS2_PLACEMENT_3D('',#257,#258,#259);
#237=EDGE_LOOP('',(#260,#261,#262,#263));
#238=AXIS2_PLACEMENT_3D('',#264,#265,#266);
#239=EDGE_LOOP('',(#267,#268,#269,#270));
#240=AXIS2_PLACEMENT_3D('',#271,#272,#273);
#241=EDGE_LOOP('',(#274,#275,#276,#277));
#242=AXIS2_PLACEMENT_3D('',#278,#279,#280);
#243=EDGE_LOOP('',(#281,#282,#283,#284));
#244=AXIS2_PLACEMENT_3D('',#285,#286,#287);
#245=EDGE_LOOP('',(#288,#289,#290,#291));
#246=AXIS2_PLACEMENT_3D('',#292,#293,#294);
#247=EDGE_LOOP('',(#295,#296,#297,#298));
#248=AXIS2_PLACEMENT_3D('',#299,#300,#301);
#249=EDGE_LOOP('',(#302,#303,#304,#305,#306,#307,#308));
#250=AXIS2_PLACEMENT_3D('',#309,#310,#311);
#251=EDGE_LOOP('',(#312,#313,#314,#315,#316,#317,#318));
#252=AXIS2_PLACEMENT_3D('',#319,#320,#321);
#253=ORIENTED_EDGE('',*,*,#322,.F.);
#254=ORIENTED_EDGE('',*,*,#323,.F.);
#255=ORIENTED_EDGE('',*,*,#324,.T.);
#256=ORIENTED_EDGE('',*,*,#325,.T.);
#257=CARTESIAN_POINT('',(4.5,6.06217782649106,-500.0));
#258=DIRECTION('',(0.866025403784438,0.5,0.0));
#259=DIRECTION('',(-0.5,0.866025403784438,0.0));
#260=ORIENTED_EDGE('',*,*,#326,.F.);
#261=ORIENTED_EDGE('',*,*,#325,.F.);
#262=ORIENTED_EDGE('',*,*,#327,.T.);
#263=ORIENTED_EDGE('',*,*,#328,.T.);
#264=CARTESIAN_POINT('',(1.0,0.0621778264910549,-500.0));
#265=DIRECTION('',(-1.0,-6.12303176911189E-17,0.0));
#266=DIRECTION('',(6.12303176911189E-17,-1.0,0.0));
#267=ORIENTED_EDGE('',*,*,#329,.F.);
#268=ORIENTED_EDGE('',*,*,#330,.F.);
#269=ORIENTED_EDGE('',*,*,#331,.T.);
#270=ORIENTED_EDGE('',*,*,#323,.T.);
#271=CARTESIAN_POINT('',(6.0,-2.16840434497101E-16,-500.0));
#272=DIRECTION('',(0.0,-1.0,0.0));
#273=DIRECTION('',(1.0,0.0,0.0));
#274=ORIENTED_EDGE('',*,*,#332,.F.);
#275=ORIENTED_EDGE('',*,*,#333,.F.);
#276=ORIENTED_EDGE('',*,*,#334,.T.);
#277=ORIENTED_EDGE('',*,*,#335,.T.);
#278=CARTESIAN_POINT('',(5.0,-5.0,-500.0));
#279=DIRECTION('',(-1.22460635382238E-16,1.0,0.0));
#280=DIRECTION('',(-1.0,-1.22460635382238E-16,0.0));
#281=ORIENTED_EDGE('',*,*,#336,.F.);
#282=ORIENTED_EDGE('',*,*,#335,.F.);
#283=ORIENTED_EDGE('',*,*,#337,.T.);
#284=ORIENTED_EDGE('',*,*,#330,.T.);
#285=CARTESIAN_POINT('',(4.0,-2.5,-500.0));
#286=DIRECTION('',(1.0,6.12303176911189E-17,0.0));
#287=DIRECTION('',(-6.12303176911189E-17,1.0,0.0));
#288=ORIENTED_EDGE('',*,*,#338,.F.);
#289=ORIENTED_EDGE('',*,*,#328,.F.);
#290=ORIENTED_EDGE('',*,*,#339,.T.);
#291=ORIENTED_EDGE('',*,*,#340,.T.);
#292=CARTESIAN_POINT('',(1.47927405783631,-12.0,-500.0));
#293=DIRECTION('',(0.0,-1.0,0.0));
#294=DIRECTION('',(1.0,0.0,0.0));
#295=ORIENTED_EDGE('',*,*,#341,.F.);
#296=ORIENTED_EDGE('',*,*,#340,.F.);
#297=ORIENTED_EDGE('',*,*,#342,.T.);
#298=ORIENTED_EDGE('',*,*,#333,.T.);
#299=CARTESIAN_POINT('',(3.97927405783631,-8.5,-500.0));
#300=DIRECTION('',(0.866025403784439,-0.5,0.0));
#301=DIRECTION('',(0.5,0.866025403784439,0.0));
#302=ORIENTED_EDGE('',*,*,#332,.T.);
#303=ORIENTED_EDGE('',*,*,#336,.T.);
#304=ORIENTED_EDGE('',*,*,#329,.T.);
#305=ORIENTED_EDGE('',*,*,#322,.T.);
#306=ORIENTED_EDGE('',*,*,#326,.T.);
#307=ORIENTED_EDGE('',*,*,#338,.T.);
#308=ORIENTED_EDGE('',*,*,#341,.T.);
#309=CARTESIAN_POINT('',(0.0,0.0,500.0));
#310=DIRECTION('',(0.0,0.0,1.0));
#311=DIRECTION('',(1.0,0.0,0.0));
#312=ORIENTED_EDGE('',*,*,#334,.F.);
#313=ORIENTED_EDGE('',*,*,#342,.F.);
#314=ORIENTED_EDGE('',*,*,#339,.F.);
#315=ORIENTED_EDGE('',*,*,#327,.F.);
#316=ORIENTED_EDGE('',*,*,#324,.F.);
#317=ORIENTED_EDGE('',*,*,#331,.F.);
#318=ORIENTED_EDGE('',*,*,#337,.F.);
#319=CARTESIAN_POINT('',(0.0,0.0,-500.0));
#320=DIRECTION('',(0.0,0.0,1.0));
#321=DIRECTION('',(1.0,0.0,0.0));
#322=EDGE_CURVE('',#343,#344,#345,.T.);
#323=EDGE_CURVE('',#346,#343,#347,.T.);
#324=EDGE_CURVE('',#346,#348,#349,.T.);
#325=EDGE_CURVE('',#348,#344,#350,.T.);
#326=EDGE_CURVE('',#344,#351,#352,.T.);
#327=EDGE_CURVE('',#348,#353,#354,.T.);
#328=EDGE_CURVE('',#353,#351,#355,.T.);
#329=EDGE_CURVE('',#356,#343,#357,.T.);
#330=EDGE_CURVE('',#358,#356,#359,.T.);
#331=EDGE_CURVE('',#358,#346,#360,.T.);
#332=EDGE_CURVE('',#361,#362,#363,.T.);
#333=EDGE_CURVE('',#364,#361,#365,.T.);
#334=EDGE_CURVE('',#364,#366,#367,.T.);
#335=EDGE_CURVE('',#366,#362,#368,.T.);
#336=EDGE_CURVE('',#362,#356,#369,.T.);
#337=EDGE_CURVE('',#366,#358,#370,.T.);
#338=EDGE_CURVE('',#351,#371,#372,.T.);
#339=EDGE_CURVE('',#353,#373,#374,.T.);
#340=EDGE_CURVE('',#373,#371,#375,.T.);
#341=EDGE_CURVE('',#371,#361,#376,.T.);
#342=EDGE_CURVE('',#373,#364,#377,.T.);
#343=VERTEX_POINT('',#378);
#344=VERTEX_POINT('',#379);
#345=LINE('',#380,#381);
#346=VERTEX_POINT('',#382);
#347=LINE('',#383,#384);
#348=VERTEX_POINT('',#385);
#349=LINE('',#386,#387);
#350=LINE('',#388,#389);
#351=VERTEX_POINT('',#390);
#352=LINE('',#391,#392);
#353=VERTEX_POINT('',#393);
#354=LINE('',#394,#395);
#355=LINE('',#396,#397);
#356=VERTEX_POINT('',#398);
#357=LINE('',#399,#400);
#358=VERTEX_POINT('',#401);
#359=LINE('',#402,#403);
#360=LINE('',#404,#405);
#361=VERTEX_POINT('',#406);
#362=VERTEX_POINT('',#407);
#363=LINE('',#408,#409);
#364=VERTEX_POINT('',#410);
#365=LINE('',#411,#412);
#366=VERTEX_POINT('',#413);
#367=LINE('',#414,#415);
#368=LINE('',#416,#417);
#369=LINE('',#418,#419);
#370=LINE('',#420,#421);
#371=VERTEX_POINT('',#422);
#372=LINE('',#423,#424);
#373=VERTEX_POINT('',#425);
#374=LINE('',#426,#427);
#375=LINE('',#428,#429);
#376=LINE('',#430,#431);
#377=LINE('',#432,#433);
#378=CARTESIAN_POINT('',(8.0,-2.16840434497101E-16,500.0));
#379=CARTESIAN_POINT('',(1.0,12.1243556529821,500.0));
#380=CARTESIAN_POINT('',(4.5,6.06217782649106,500.0));
#381=VECTOR('',#434,1.0);
#382=CARTESIAN_POINT('',(8.0,-2.16840434497101E-16,-500.0));
#383=CARTESIAN_POINT('',(8.0,-2.16840434497101E-16,-500.0));
#384=VECTOR('',#435,1.0);
#385=CARTESIAN_POINT('',(1.0,12.1243556529821,-500.0));
#386=CARTESIAN_POINT('',(4.5,6.06217782649106,-500.0));
#387=VECTOR('',#436,1.0);
#388=CARTESIAN_POINT('',(1.0,12.1243556529821,-500.0));
#389=VECTOR('',#437,1.0);
#390=CARTESIAN_POINT('',(1.0,-12.0,500.0));
#391=CARTESIAN_POINT('',(1.0,0.0621778264910549,500.0));
#392=VECTOR('',#438,1.0);
#393=CARTESIAN_POINT('',(1.0,-12.0,-500.0));
#394=CARTESIAN_POINT('',(1.0,0.0621778264910549,-500.0));
#395=VECTOR('',#439,1.0);
#396=CARTESIAN_POINT('',(1.0,-12.0,-500.0));
#397=VECTOR('',#440,1.0);
#398=CARTESIAN_POINT('',(4.0,-4.33680868994202E-16,500.0));
#399=CARTESIAN_POINT('',(6.0,-2.16840434497101E-16,500.0));
#400=VECTOR('',#441,1.0);
#401=CARTESIAN_POINT('',(4.0,-4.33680868994202E-16,-500.0));
#402=CARTESIAN_POINT('',(4.0,-4.33680868994202E-16,-500.0));
#403=VECTOR('',#442,1.0);
#404=CARTESIAN_POINT('',(6.0,-2.16840434497101E-16,-500.0));
#405=VECTOR('',#443,1.0);
#406=CARTESIAN_POINT('',(6.0,-5.0,500.0));
#407=CARTESIAN_POINT('',(4.0,-5.0,500.0));
#408=CARTESIAN_POINT('',(5.0,-5.0,500.0));
#409=VECTOR('',#444,1.0);
#410=CARTESIAN_POINT('',(6.0,-5.0,-500.0));
#411=CARTESIAN_POINT('',(6.0,-5.0,-500.0));
#412=VECTOR('',#445,1.0);
#413=CARTESIAN_POINT('',(4.0,-5.0,-500.0));
#414=CARTESIAN_POINT('',(5.0,-5.0,-500.0));
#415=VECTOR('',#446,1.0);
#416=CARTESIAN_POINT('',(4.0,-5.0,-500.0));
#417=VECTOR('',#447,1.0);
#418=CARTESIAN_POINT('',(4.0,-2.5,500.0));
#419=VECTOR('',#448,1.0);
#420=CARTESIAN_POINT('',(4.0,-2.5,-500.0));
#421=VECTOR('',#449,1.0);
#422=CARTESIAN_POINT('',(1.95854811567262,-12.0,500.0));
#423=CARTESIAN_POINT('',(1.47927405783631,-12.0,500.0));
#424=VECTOR('',#450,1.0);
#425=CARTESIAN_POINT('',(1.95854811567262,-12.0,-500.0));
#426=CARTESIAN_POINT('',(1.47927405783631,-12.0,-500.0));
#427=VECTOR('',#451,1.0);
#428=CARTESIAN_POINT('',(1.95854811567262,-12.0,-500.0));
#429=VECTOR('',#452,1.0);
#430=CARTESIAN_POINT('',(3.97927405783631,-8.5,500.0));
#431=VECTOR('',#453,1.0);
#432=CARTESIAN_POINT('',(3.97927405783631,-8.5,-500.0));
#433=VECTOR('',#454,1.0);
#434=DIRECTION('',(-0.5,0.866025403784438,0.0));
#435=DIRECTION('',(0.0,0.0,1.0));
#436=DIRECTION('',(-0.5,0.866025403784438,0.0));
#437=DIRECTION('',(0.0,0.0,1.0));
#438=DIRECTION('',(6.12303176911189E-17,-1.0,0.0));
#439=DIRECTION('',(6.12303176911189E-17,-1.0,0.0));
#440=DIRECTION('',(0.0,0.0,1.0));
#441=DIRECTION('',(1.0,0.0,0.0));
#442=DIRECTION('',(0.0,0.0,1.0));
#443=DIRECTION('',(1.0,0.0,0.0));
#444=DIRECTION('',(-1.0,-1.22460635382238E-16,0.0));
#445=DIRECTION('',(0.0,0.0,1.0));
#446=DIRECTION('',(-1.0,-1.22460635382238E-16,0.0));
#447=DIRECTION('',(0.0,0.0,1.0));
#448=DIRECTION('',(-6.12303176911189E-17,1.0,0.0));
#449=DIRECTION('',(-6.12303176911189E-17,1.0,0.0));
#450=DIRECTION('',(1.0,0.0,0.0));
#451=DIRECTION('',(1.0,0.0,0.0));
#452=DIRECTION('',(0.0,0.0,1.0));
#453=DIRECTION('',(0.5,0.866025403784439,0.0));
#454=DIRECTION('',(0.5,0.866025403784439,0.0));
ENDSEC;
END-ISO-10303-21;
