ISO-10303-21;
HEADER;
FILE_DESCRIPTION (( 'STEP AP214' ),
    '1' );
FILE_NAME ('SAFE00H1896-Rondelle imperdable M5 ép. 0.5 mm.step',
    '2023-03-24T10:10:34',
    ( 'Altae' ),
    ( '' ),
    'SwSTEP 2.0',
    'SolidWorks 2021',
    '' );
FILE_SCHEMA (( 'AUTOMOTIVE_DESIGN' ));
ENDSEC;

DATA;
#1 = DIRECTION ( 'NONE',  ( 1.000000000000000000, 0.000000000000000000, 0.000000000000000000 ) ) ;
#2 = CARTESIAN_POINT ( 'NONE',  ( 0.000000000000000000, 0.000000000000000000, 0.000000000000000000 ) ) ;
#3 =( NAMED_UNIT ( * ) PLANE_ANGLE_UNIT ( ) SI_UNIT ( $, .RADIAN. ) );
#4 = PRESENTATION_STYLE_ASSIGNMENT (( #181 ) ) ;
#5 = ORIENTED_EDGE ( 'NONE', *, *, #100, .T. ) ;
#6 = VERTEX_POINT ( 'NONE', #186 ) ;
#7 = AXIS2_PLACEMENT_3D ( 'NONE', #82, #149, #65 ) ;
#8 = ORIENTED_EDGE ( 'NONE', *, *, #48, .F. ) ;
#9 = DIRECTION ( 'NONE',  ( 0.000000000000000000, 0.000000000000000000, 1.000000000000000000 ) ) ;
#10 = EDGE_CURVE ( 'NONE', #142, #6, #168, .T. ) ;
#11 = VERTEX_POINT ( 'NONE', #152 ) ;
#12 = VECTOR ( 'NONE', #98, 1000.000000000000000 ) ;
#13 = DIRECTION ( 'NONE',  ( 0.000000000000000000, 0.000000000000000000, 1.000000000000000000 ) ) ;
#14 = PRODUCT ( 'SAFE00H1896-Rondelle imperdable M5 ép. 0.5 mm', 'SAFE00H1896-Rondelle imperdable M5 ép. 0.5 mm', '', ( #25 ) ) ;
#15 = FILL_AREA_STYLE_COLOUR ( '', #56 ) ;
#16 = CARTESIAN_POINT ( 'NONE',  ( 0.000000000000000000, 0.000000000000000000, -0.5000000000000000000 ) ) ;
#17 = AXIS2_PLACEMENT_3D ( 'NONE', #160, #179, #138 ) ;
#18 = DIRECTION ( 'NONE',  ( 0.000000000000000000, 0.000000000000000000, 1.000000000000000000 ) ) ;
#19 = DIRECTION ( 'NONE',  ( 1.000000000000000000, 0.000000000000000000, 0.000000000000000000 ) ) ;
#20 = DIRECTION ( 'NONE',  ( 0.000000000000000000, 0.000000000000000000, 1.000000000000000000 ) ) ;
#21 = CIRCLE ( 'NONE', #127, 5.000000000000000000 ) ;
#22 = SURFACE_SIDE_STYLE ('',( #54 ) ) ;
#23 = APPLICATION_PROTOCOL_DEFINITION ( 'draft international standard', 'automotive_design', 1998, #58 ) ;
#24 = ADVANCED_FACE ( 'NONE', ( #141 ), #74, .F. ) ;
#25 = PRODUCT_CONTEXT ( 'NONE', #58, 'mechanical' ) ;
#26 = CARTESIAN_POINT ( 'NONE',  ( -5.000000000000000000, 6.123233995736766282E-16, -0.5000000000000000000 ) ) ;
#27 = ORIENTED_EDGE ( 'NONE', *, *, #208, .F. ) ;
#28 = STYLED_ITEM ( 'NONE', ( #4 ), #137 ) ;
#29 = ORIENTED_EDGE ( 'NONE', *, *, #91, .T. ) ;
#30 = AXIS2_PLACEMENT_3D ( 'NONE', #80, #34, #79 ) ;
#31 = FACE_OUTER_BOUND ( 'NONE', #55, .T. ) ;
#32 = EDGE_CURVE ( 'NONE', #92, #11, #185, .T. ) ;
#33 = CARTESIAN_POINT ( 'NONE',  ( 0.000000000000000000, 0.000000000000000000, -0.5000000000000000000 ) ) ;
#34 = DIRECTION ( 'NONE',  ( 0.000000000000000000, 0.000000000000000000, 1.000000000000000000 ) ) ;
#35 = CIRCLE ( 'NONE', #17, 5.000000000000000000 ) ;
#36 = FACE_OUTER_BOUND ( 'NONE', #204, .T. ) ;
#37 = CYLINDRICAL_SURFACE ( 'NONE', #102, 5.000000000000000000 ) ;
#38 =( NAMED_UNIT ( * ) SI_UNIT ( $, .STERADIAN. ) SOLID_ANGLE_UNIT ( ) );
#39 = PRESENTATION_LAYER_ASSIGNMENT (  '', '', ( #169 ) ) ;
#40 = SURFACE_SIDE_STYLE ('',( #203 ) ) ;
#41 = EDGE_LOOP ( 'NONE', ( #123, #104, #29, #27 ) ) ;
#42 = SHAPE_DEFINITION_REPRESENTATION ( #212, #137 ) ;
#43 = EDGE_LOOP ( 'NONE', ( #153, #190, #88, #206 ) ) ;
#44 = ORIENTED_EDGE ( 'NONE', *, *, #87, .T. ) ;
#45 = ORIENTED_EDGE ( 'NONE', *, *, #87, .F. ) ;
#46 = CIRCLE ( 'NONE', #93, 2.049999999999999822 ) ;
#47 = DIRECTION ( 'NONE',  ( 0.000000000000000000, 0.000000000000000000, 1.000000000000000000 ) ) ;
#48 = EDGE_CURVE ( 'NONE', #155, #209, #46, .T. ) ;
#49 = CARTESIAN_POINT ( 'NONE',  ( 5.000000000000000000, 0.000000000000000000, -0.5000000000000000000 ) ) ;
#50 = EDGE_CURVE ( 'NONE', #11, #92, #81, .T. ) ;
#51 = CARTESIAN_POINT ( 'NONE',  ( 2.049999999999999822, 0.000000000000000000, -0.5000000000000000000 ) ) ;
#52 = DIRECTION ( 'NONE',  ( 0.000000000000000000, 0.000000000000000000, 1.000000000000000000 ) ) ;
#53 =( GEOMETRIC_REPRESENTATION_CONTEXT ( 3 ) GLOBAL_UNCERTAINTY_ASSIGNED_CONTEXT ( ( #157 ) ) GLOBAL_UNIT_ASSIGNED_CONTEXT ( ( #178, #164, #38 ) ) REPRESENTATION_CONTEXT ( 'NONE', 'WORKASPACE' ) );
#54 = SURFACE_STYLE_FILL_AREA ( #84 ) ;
#55 = EDGE_LOOP ( 'NONE', ( #158, #170 ) ) ;
#56 = COLOUR_RGB ( '',0.9254901960784314152, 0.9254901960784314152, 0.9058823529411764719 ) ;
#57 = PRODUCT_DEFINITION_CONTEXT ( 'detailed design', #68, 'design' ) ;
#58 = APPLICATION_CONTEXT ( 'automotive_design' ) ;
#59 = ORIENTED_EDGE ( 'NONE', *, *, #91, .F. ) ;
#60 = DIRECTION ( 'NONE',  ( 0.000000000000000000, 0.000000000000000000, 1.000000000000000000 ) ) ;
#61 = LINE ( 'NONE', #51, #12 ) ;
#62 = PRESENTATION_LAYER_ASSIGNMENT (  '', '', ( #28 ) ) ;
#63 = AXIS2_PLACEMENT_3D ( 'NONE', #171, #9, #214 ) ;
#64 = DIRECTION ( 'NONE',  ( 1.000000000000000000, 0.000000000000000000, 0.000000000000000000 ) ) ;
#65 = DIRECTION ( 'NONE',  ( 1.000000000000000000, 0.000000000000000000, 0.000000000000000000 ) ) ;
#66 = DIRECTION ( 'NONE',  ( 0.000000000000000000, 0.000000000000000000, 1.000000000000000000 ) ) ;
#67 =( LENGTH_UNIT ( ) NAMED_UNIT ( * ) SI_UNIT ( .MILLI., .METRE. ) );
#68 = APPLICATION_CONTEXT ( 'automotive_design' ) ;
#69 = PRESENTATION_STYLE_ASSIGNMENT (( #101 ) ) ;
#70 = ORIENTED_EDGE ( 'NONE', *, *, #32, .F. ) ;
#71 = AXIS2_PLACEMENT_3D ( 'NONE', #2, #60, #134 ) ;
#72 = EDGE_LOOP ( 'NONE', ( #44, #108, #191, #59 ) ) ;
#73 = CIRCLE ( 'NONE', #195, 5.000000000000000000 ) ;
#74 = CYLINDRICAL_SURFACE ( 'NONE', #77, 2.049999999999999822 ) ;
#75 = ORIENTED_EDGE ( 'NONE', *, *, #182, .F. ) ;
#76 = ORIENTED_EDGE ( 'NONE', *, *, #100, .F. ) ;
#77 = AXIS2_PLACEMENT_3D ( 'NONE', #207, #125, #187 ) ;
#78 = FACE_OUTER_BOUND ( 'NONE', #121, .T. ) ;
#79 = DIRECTION ( 'NONE',  ( 1.000000000000000000, 0.000000000000000000, -0.000000000000000000 ) ) ;
#80 = CARTESIAN_POINT ( 'NONE',  ( 0.000000000000000000, 0.000000000000000000, -0.5000000000000000000 ) ) ;
#81 = CIRCLE ( 'NONE', #201, 2.049999999999999822 ) ;
#82 = CARTESIAN_POINT ( 'NONE',  ( 0.000000000000000000, 0.000000000000000000, -0.5000000000000000000 ) ) ;
#83 = FACE_OUTER_BOUND ( 'NONE', #41, .T. ) ;
#84 = FILL_AREA_STYLE ('',( #15 ) ) ;
#85 = EDGE_CURVE ( 'NONE', #172, #6, #105, .T. ) ;
#86 = ADVANCED_FACE ( 'NONE', ( #196, #31 ), #211, .T. ) ;
#87 = EDGE_CURVE ( 'NONE', #103, #142, #21, .T. ) ;
#88 = ORIENTED_EDGE ( 'NONE', *, *, #126, .T. ) ;
#89 = AXIS2_PLACEMENT_3D ( 'NONE', #133, #66, #162 ) ;
#90 = ORIENTED_EDGE ( 'NONE', *, *, #166, .T. ) ;
#91 = EDGE_CURVE ( 'NONE', #103, #172, #159, .T. ) ;
#92 = VERTEX_POINT ( 'NONE', #95 ) ;
#93 = AXIS2_PLACEMENT_3D ( 'NONE', #176, #18, #64 ) ;
#94 = CARTESIAN_POINT ( 'NONE',  ( -2.049999999999999822, 2.510525938252073693E-16, -0.5000000000000000000 ) ) ;
#95 = CARTESIAN_POINT ( 'NONE',  ( -2.049999999999999822, 2.510525938252073693E-16, -0.5000000000000000000 ) ) ;
#96 = CARTESIAN_POINT ( 'NONE',  ( 5.000000000000000000, 0.000000000000000000, -0.5000000000000000000 ) ) ;
#97 = MECHANICAL_DESIGN_GEOMETRIC_PRESENTATION_REPRESENTATION (  '', ( #169 ), #213 ) ;
#98 = DIRECTION ( 'NONE',  ( 0.000000000000000000, 0.000000000000000000, 1.000000000000000000 ) ) ;
#99 =( NAMED_UNIT ( * ) SI_UNIT ( $, .STERADIAN. ) SOLID_ANGLE_UNIT ( ) );
#100 = EDGE_CURVE ( 'NONE', #209, #155, #194, .T. ) ;
#101 = SURFACE_STYLE_USAGE ( .BOTH. , #22 ) ;
#102 = AXIS2_PLACEMENT_3D ( 'NONE', #16, #197, #1 ) ;
#103 = VERTEX_POINT ( 'NONE', #49 ) ;
#104 = ORIENTED_EDGE ( 'NONE', *, *, #182, .T. ) ;
#105 = CIRCLE ( 'NONE', #71, 5.000000000000000000 ) ;
#106 = EDGE_LOOP ( 'NONE', ( #144, #130 ) ) ;
#107 = DIRECTION ( 'NONE',  ( 0.000000000000000000, 0.000000000000000000, 1.000000000000000000 ) ) ;
#108 = ORIENTED_EDGE ( 'NONE', *, *, #10, .T. ) ;
#109 = DIRECTION ( 'NONE',  ( 0.000000000000000000, 0.000000000000000000, 1.000000000000000000 ) ) ;
#110 = CLOSED_SHELL ( 'NONE', ( #136, #156, #24, #124, #129, #86 ) ) ;
#111 = CARTESIAN_POINT ( 'NONE',  ( 0.000000000000000000, 0.000000000000000000, 0.000000000000000000 ) ) ;
#112 = PLANE ( 'NONE',  #30 ) ;
#113 = CARTESIAN_POINT ( 'NONE',  ( 2.049999999999999822, 0.000000000000000000, 0.000000000000000000 ) ) ;
#114 = DIRECTION ( 'NONE',  ( 1.000000000000000000, 0.000000000000000000, 0.000000000000000000 ) ) ;
#115 = FILL_AREA_STYLE_COLOUR ( '', #117 ) ;
#116 =( GEOMETRIC_REPRESENTATION_CONTEXT ( 3 ) GLOBAL_UNCERTAINTY_ASSIGNED_CONTEXT ( ( #188 ) ) GLOBAL_UNIT_ASSIGNED_CONTEXT ( ( #167, #3, #99 ) ) REPRESENTATION_CONTEXT ( 'NONE', 'WORKASPACE' ) );
#117 = COLOUR_RGB ( '',0.9254901960784314152, 0.9254901960784314152, 0.9058823529411764719 ) ;
#118 =( NAMED_UNIT ( * ) SI_UNIT ( $, .STERADIAN. ) SOLID_ANGLE_UNIT ( ) );
#119 =( NAMED_UNIT ( * ) PLANE_ANGLE_UNIT ( ) SI_UNIT ( $, .RADIAN. ) );
#120 = VECTOR ( 'NONE', #47, 1000.000000000000000 ) ;
#121 = EDGE_LOOP ( 'NONE', ( #45, #75 ) ) ;
#122 = APPLICATION_PROTOCOL_DEFINITION ( 'draft international standard', 'automotive_design', 1998, #68 ) ;
#123 = ORIENTED_EDGE ( 'NONE', *, *, #10, .F. ) ;
#124 = ADVANCED_FACE ( 'NONE', ( #83 ), #37, .T. ) ;
#125 = DIRECTION ( 'NONE',  ( 0.000000000000000000, 0.000000000000000000, 1.000000000000000000 ) ) ;
#126 = EDGE_CURVE ( 'NONE', #11, #155, #61, .T. ) ;
#127 = AXIS2_PLACEMENT_3D ( 'NONE', #135, #175, #174 ) ;
#128 = EDGE_LOOP ( 'NONE', ( #8, #76 ) ) ;
#129 = ADVANCED_FACE ( 'NONE', ( #200, #78 ), #112, .F. ) ;
#130 = ORIENTED_EDGE ( 'NONE', *, *, #32, .T. ) ;
#131 = DIRECTION ( 'NONE',  ( 0.000000000000000000, 0.000000000000000000, 1.000000000000000000 ) ) ;
#132 = AXIS2_PLACEMENT_3D ( 'NONE', #111, #177, #161 ) ;
#133 = CARTESIAN_POINT ( 'NONE',  ( 0.000000000000000000, 0.000000000000000000, 0.000000000000000000 ) ) ;
#134 = DIRECTION ( 'NONE',  ( 1.000000000000000000, 0.000000000000000000, 0.000000000000000000 ) ) ;
#135 = CARTESIAN_POINT ( 'NONE',  ( 0.000000000000000000, 0.000000000000000000, -0.5000000000000000000 ) ) ;
#136 = ADVANCED_FACE ( 'NONE', ( #146 ), #147, .T. ) ;
#137 = ADVANCED_BREP_SHAPE_REPRESENTATION ( 'SAFE00H1896-Rondelle imperdable M5 Úp. 0.5 mm', ( #198, #193 ), #116 ) ;
#138 = DIRECTION ( 'NONE',  ( 1.000000000000000000, 0.000000000000000000, 0.000000000000000000 ) ) ;
#139 = PRODUCT_RELATED_PRODUCT_CATEGORY ( 'part', '', ( #14 ) ) ;
#140 = ORIENTED_EDGE ( 'NONE', *, *, #126, .F. ) ;
#141 = FACE_OUTER_BOUND ( 'NONE', #43, .T. ) ;
#142 = VERTEX_POINT ( 'NONE', #199 ) ;
#143 = VECTOR ( 'NONE', #107, 1000.000000000000000 ) ;
#144 = ORIENTED_EDGE ( 'NONE', *, *, #50, .T. ) ;
#145 = LINE ( 'NONE', #94, #180 ) ;
#146 = FACE_OUTER_BOUND ( 'NONE', #72, .T. ) ;
#147 = CYLINDRICAL_SURFACE ( 'NONE', #7, 5.000000000000000000 ) ;
#148 = PRODUCT_DEFINITION ( 'UNKNOWN', '', #165, #57 ) ;
#149 = DIRECTION ( 'NONE',  ( 0.000000000000000000, 0.000000000000000000, 1.000000000000000000 ) ) ;
#150 = CARTESIAN_POINT ( 'NONE',  ( 0.000000000000000000, 0.000000000000000000, -0.5000000000000000000 ) ) ;
#151 = FILL_AREA_STYLE ('',( #115 ) ) ;
#152 = CARTESIAN_POINT ( 'NONE',  ( 2.049999999999999822, 0.000000000000000000, -0.5000000000000000000 ) ) ;
#153 = ORIENTED_EDGE ( 'NONE', *, *, #166, .F. ) ;
#154 = DIRECTION ( 'NONE',  ( 1.000000000000000000, 0.000000000000000000, 0.000000000000000000 ) ) ;
#155 = VERTEX_POINT ( 'NONE', #113 ) ;
#156 = ADVANCED_FACE ( 'NONE', ( #36 ), #163, .F. ) ;
#157 = UNCERTAINTY_MEASURE_WITH_UNIT (LENGTH_MEASURE( 1.000000000000000082E-05 ), #178, 'distance_accuracy_value', 'NONE');
#158 = ORIENTED_EDGE ( 'NONE', *, *, #85, .T. ) ;
#159 = LINE ( 'NONE', #96, #120 ) ;
#160 = CARTESIAN_POINT ( 'NONE',  ( 0.000000000000000000, 0.000000000000000000, 0.000000000000000000 ) ) ;
#161 = DIRECTION ( 'NONE',  ( 1.000000000000000000, 0.000000000000000000, 0.000000000000000000 ) ) ;
#162 = DIRECTION ( 'NONE',  ( 1.000000000000000000, 0.000000000000000000, -0.000000000000000000 ) ) ;
#163 = CYLINDRICAL_SURFACE ( 'NONE', #189, 2.049999999999999822 ) ;
#164 =( NAMED_UNIT ( * ) PLANE_ANGLE_UNIT ( ) SI_UNIT ( $, .RADIAN. ) );
#165 = PRODUCT_DEFINITION_FORMATION_WITH_SPECIFIED_SOURCE ( 'ANY', '', #14, .NOT_KNOWN. ) ;
#166 = EDGE_CURVE ( 'NONE', #92, #209, #145, .T. ) ;
#167 =( LENGTH_UNIT ( ) NAMED_UNIT ( * ) SI_UNIT ( .MILLI., .METRE. ) );
#168 = LINE ( 'NONE', #26, #143 ) ;
#169 = STYLED_ITEM ( 'NONE', ( #69 ), #198 ) ;
#170 = ORIENTED_EDGE ( 'NONE', *, *, #208, .T. ) ;
#171 = CARTESIAN_POINT ( 'NONE',  ( 0.000000000000000000, 0.000000000000000000, -0.5000000000000000000 ) ) ;
#172 = VERTEX_POINT ( 'NONE', #210 ) ;
#173 = DIRECTION ( 'NONE',  ( 1.000000000000000000, 0.000000000000000000, 0.000000000000000000 ) ) ;
#174 = DIRECTION ( 'NONE',  ( 1.000000000000000000, 0.000000000000000000, 0.000000000000000000 ) ) ;
#175 = DIRECTION ( 'NONE',  ( 0.000000000000000000, 0.000000000000000000, 1.000000000000000000 ) ) ;
#176 = CARTESIAN_POINT ( 'NONE',  ( 0.000000000000000000, 0.000000000000000000, 0.000000000000000000 ) ) ;
#177 = DIRECTION ( 'NONE',  ( 0.000000000000000000, 0.000000000000000000, 1.000000000000000000 ) ) ;
#178 =( LENGTH_UNIT ( ) NAMED_UNIT ( * ) SI_UNIT ( .MILLI., .METRE. ) );
#179 = DIRECTION ( 'NONE',  ( 0.000000000000000000, 0.000000000000000000, 1.000000000000000000 ) ) ;
#180 = VECTOR ( 'NONE', #131, 1000.000000000000000 ) ;
#181 = SURFACE_STYLE_USAGE ( .BOTH. , #40 ) ;
#182 = EDGE_CURVE ( 'NONE', #142, #103, #73, .T. ) ;
#183 = UNCERTAINTY_MEASURE_WITH_UNIT (LENGTH_MEASURE( 1.000000000000000082E-05 ), #67, 'distance_accuracy_value', 'NONE');
#184 = CARTESIAN_POINT ( 'NONE',  ( 0.000000000000000000, 0.000000000000000000, 0.000000000000000000 ) ) ;
#185 = CIRCLE ( 'NONE', #63, 2.049999999999999822 ) ;
#186 = CARTESIAN_POINT ( 'NONE',  ( -5.000000000000000000, 6.123233995736766282E-16, 0.000000000000000000 ) ) ;
#187 = DIRECTION ( 'NONE',  ( 1.000000000000000000, 0.000000000000000000, 0.000000000000000000 ) ) ;
#188 = UNCERTAINTY_MEASURE_WITH_UNIT (LENGTH_MEASURE( 1.000000000000000082E-05 ), #167, 'distance_accuracy_value', 'NONE');
#189 = AXIS2_PLACEMENT_3D ( 'NONE', #150, #52, #114 ) ;
#190 = ORIENTED_EDGE ( 'NONE', *, *, #50, .F. ) ;
#191 = ORIENTED_EDGE ( 'NONE', *, *, #85, .F. ) ;
#192 = CARTESIAN_POINT ( 'NONE',  ( 0.000000000000000000, 0.000000000000000000, -0.5000000000000000000 ) ) ;
#193 = AXIS2_PLACEMENT_3D ( 'NONE', #184, #20, #154 ) ;
#194 = CIRCLE ( 'NONE', #132, 2.049999999999999822 ) ;
#195 = AXIS2_PLACEMENT_3D ( 'NONE', #192, #109, #173 ) ;
#196 = FACE_BOUND ( 'NONE', #128, .T. ) ;
#197 = DIRECTION ( 'NONE',  ( 0.000000000000000000, 0.000000000000000000, 1.000000000000000000 ) ) ;
#198 = MANIFOLD_SOLID_BREP ( 'Importée1', #110 ) ;
#199 = CARTESIAN_POINT ( 'NONE',  ( -5.000000000000000000, 6.123233995736766282E-16, -0.5000000000000000000 ) ) ;
#200 = FACE_BOUND ( 'NONE', #106, .T. ) ;
#201 = AXIS2_PLACEMENT_3D ( 'NONE', #33, #13, #19 ) ;
#202 = CARTESIAN_POINT ( 'NONE',  ( -2.049999999999999822, 2.510525938252073693E-16, 0.000000000000000000 ) ) ;
#203 = SURFACE_STYLE_FILL_AREA ( #151 ) ;
#204 = EDGE_LOOP ( 'NONE', ( #70, #90, #5, #140 ) ) ;
#205 = MECHANICAL_DESIGN_GEOMETRIC_PRESENTATION_REPRESENTATION (  '', ( #28 ), #53 ) ;
#206 = ORIENTED_EDGE ( 'NONE', *, *, #48, .T. ) ;
#207 = CARTESIAN_POINT ( 'NONE',  ( 0.000000000000000000, 0.000000000000000000, -0.5000000000000000000 ) ) ;
#208 = EDGE_CURVE ( 'NONE', #6, #172, #35, .T. ) ;
#209 = VERTEX_POINT ( 'NONE', #202 ) ;
#210 = CARTESIAN_POINT ( 'NONE',  ( 5.000000000000000000, 0.000000000000000000, 0.000000000000000000 ) ) ;
#211 = PLANE ( 'NONE',  #89 ) ;
#212 = PRODUCT_DEFINITION_SHAPE ( 'NONE', 'NONE',  #148 ) ;
#213 =( GEOMETRIC_REPRESENTATION_CONTEXT ( 3 ) GLOBAL_UNCERTAINTY_ASSIGNED_CONTEXT ( ( #183 ) ) GLOBAL_UNIT_ASSIGNED_CONTEXT ( ( #67, #119, #118 ) ) REPRESENTATION_CONTEXT ( 'NONE', 'WORKASPACE' ) );
#214 = DIRECTION ( 'NONE',  ( 1.000000000000000000, 0.000000000000000000, 0.000000000000000000 ) ) ;
ENDSEC;
END-ISO-10303-21;
