ISO-10303-21;
HEADER;
FILE_DESCRIPTION (( 'STEP AP214' ),
    '1' );
FILE_NAME ('SAFE00H1897-Rondelle imperdable M6.step',
    '2023-03-24T10:10:36',
    ( 'Altae' ),
    ( '' ),
    'SwSTEP 2.0',
    'SolidWorks 2021',
    '' );
FILE_SCHEMA (( 'AUTOMOTIVE_DESIGN' ));
ENDSEC;

DATA;
#1 = CARTESIAN_POINT ( 'NONE',  ( 0.000000000000000000, 0.000000000000000000, -0.5000000000000000000 ) ) ;
#2 = DIRECTION ( 'NONE',  ( 1.000000000000000000, 0.000000000000000000, 0.000000000000000000 ) ) ;
#3 = CIRCLE ( 'NONE', #18, 6.000000000000000000 ) ;
#4 = AXIS2_PLACEMENT_3D ( 'NONE', #126, #49, #53 ) ;
#5 = ADVANCED_FACE ( 'NONE', ( #178 ), #175, .F. ) ;
#6 = DIRECTION ( 'NONE',  ( 0.000000000000000000, 0.000000000000000000, 1.000000000000000000 ) ) ;
#7 = ORIENTED_EDGE ( 'NONE', *, *, #200, .F. ) ;
#8 = PLANE ( 'NONE',  #162 ) ;
#9 = CLOSED_SHELL ( 'NONE', ( #56, #45, #5, #153, #160, #101 ) ) ;
#10 =( GEOMETRIC_REPRESENTATION_CONTEXT ( 3 ) GLOBAL_UNCERTAINTY_ASSIGNED_CONTEXT ( ( #64 ) ) GLOBAL_UNIT_ASSIGNED_CONTEXT ( ( #113, #54, #199 ) ) REPRESENTATION_CONTEXT ( 'NONE', 'WORKASPACE' ) );
#11 = VERTEX_POINT ( 'NONE', #94 ) ;
#12 = PRODUCT ( 'SAFE00H1897-Rondelle imperdable M6', 'SAFE00H1897-Rondelle imperdable M6', '', ( #128 ) ) ;
#13 = SURFACE_SIDE_STYLE ('',( #109 ) ) ;
#14 = CYLINDRICAL_SURFACE ( 'NONE', #136, 2.549999999999999822 ) ;
#15 = DIRECTION ( 'NONE',  ( 1.000000000000000000, 0.000000000000000000, 0.000000000000000000 ) ) ;
#16 = EDGE_CURVE ( 'NONE', #173, #11, #140, .T. ) ;
#17 = ORIENTED_EDGE ( 'NONE', *, *, #16, .T. ) ;
#18 = AXIS2_PLACEMENT_3D ( 'NONE', #34, #163, #143 ) ;
#19 = FACE_OUTER_BOUND ( 'NONE', #151, .T. ) ;
#20 = CARTESIAN_POINT ( 'NONE',  ( 6.000000000000000000, 0.000000000000000000, -0.5000000000000000000 ) ) ;
#21 = DIRECTION ( 'NONE',  ( 1.000000000000000000, 0.000000000000000000, 0.000000000000000000 ) ) ;
#22 = CARTESIAN_POINT ( 'NONE',  ( 2.549999999999999822, 0.000000000000000000, 0.000000000000000000 ) ) ;
#23 = ORIENTED_EDGE ( 'NONE', *, *, #118, .T. ) ;
#24 = EDGE_CURVE ( 'NONE', #57, #28, #93, .T. ) ;
#25 = FILL_AREA_STYLE_COLOUR ( '', #97 ) ;
#26 = ORIENTED_EDGE ( 'NONE', *, *, #74, .F. ) ;
#27 = UNCERTAINTY_MEASURE_WITH_UNIT (LENGTH_MEASURE( 1.000000000000000082E-05 ), #141, 'distance_accuracy_value', 'NONE');
#28 = VERTEX_POINT ( 'NONE', #114 ) ;
#29 = PRODUCT_DEFINITION_FORMATION_WITH_SPECIFIED_SOURCE ( 'ANY', '', #12, .NOT_KNOWN. ) ;
#30 = DIRECTION ( 'NONE',  ( 0.000000000000000000, 0.000000000000000000, 1.000000000000000000 ) ) ;
#31 = PRODUCT_DEFINITION ( 'UNKNOWN', '', #29, #198 ) ;
#32 = EDGE_LOOP ( 'NONE', ( #73, #78, #179, #149 ) ) ;
#33 = SURFACE_STYLE_FILL_AREA ( #182 ) ;
#34 = CARTESIAN_POINT ( 'NONE',  ( 0.000000000000000000, 0.000000000000000000, 0.000000000000000000 ) ) ;
#35 = EDGE_CURVE ( 'NONE', #11, #173, #3, .T. ) ;
#36 = VECTOR ( 'NONE', #50, 1000.000000000000000 ) ;
#37 = CIRCLE ( 'NONE', #71, 2.549999999999999822 ) ;
#38 = LINE ( 'NONE', #119, #168 ) ;
#39 = CARTESIAN_POINT ( 'NONE',  ( 2.549999999999999822, 0.000000000000000000, -0.5000000000000000000 ) ) ;
#40 =( LENGTH_UNIT ( ) NAMED_UNIT ( * ) SI_UNIT ( .MILLI., .METRE. ) );
#41 =( NAMED_UNIT ( * ) PLANE_ANGLE_UNIT ( ) SI_UNIT ( $, .RADIAN. ) );
#42 = EDGE_LOOP ( 'NONE', ( #127, #112 ) ) ;
#43 = UNCERTAINTY_MEASURE_WITH_UNIT (LENGTH_MEASURE( 1.000000000000000082E-05 ), #40, 'distance_accuracy_value', 'NONE');
#44 = FILL_AREA_STYLE_COLOUR ( '', #46 ) ;
#45 = ADVANCED_FACE ( 'NONE', ( #19 ), #14, .F. ) ;
#46 = COLOUR_RGB ( '',0.9254901960784314152, 0.9254901960784314152, 0.9058823529411764719 ) ;
#47 = ORIENTED_EDGE ( 'NONE', *, *, #69, .F. ) ;
#48 = STYLED_ITEM ( 'NONE', ( #96 ), #146 ) ;
#49 = DIRECTION ( 'NONE',  ( 0.000000000000000000, 0.000000000000000000, 1.000000000000000000 ) ) ;
#50 = DIRECTION ( 'NONE',  ( 0.000000000000000000, 0.000000000000000000, 1.000000000000000000 ) ) ;
#51 = PRODUCT_DEFINITION_SHAPE ( 'NONE', 'NONE',  #31 ) ;
#52 = AXIS2_PLACEMENT_3D ( 'NONE', #187, #166, #165 ) ;
#53 = DIRECTION ( 'NONE',  ( 1.000000000000000000, 0.000000000000000000, 0.000000000000000000 ) ) ;
#54 =( NAMED_UNIT ( * ) PLANE_ANGLE_UNIT ( ) SI_UNIT ( $, .RADIAN. ) );
#55 = DIRECTION ( 'NONE',  ( 1.000000000000000000, 0.000000000000000000, 0.000000000000000000 ) ) ;
#56 = ADVANCED_FACE ( 'NONE', ( #214 ), #84, .T. ) ;
#57 = VERTEX_POINT ( 'NONE', #174 ) ;
#58 = CIRCLE ( 'NONE', #133, 2.549999999999999822 ) ;
#59 = CARTESIAN_POINT ( 'NONE',  ( -6.000000000000000000, 7.347880794884119736E-16, -0.5000000000000000000 ) ) ;
#60 = ORIENTED_EDGE ( 'NONE', *, *, #61, .F. ) ;
#61 = EDGE_CURVE ( 'NONE', #68, #111, #181, .T. ) ;
#62 = VERTEX_POINT ( 'NONE', #70 ) ;
#63 = AXIS2_PLACEMENT_3D ( 'NONE', #131, #201, #55 ) ;
#64 = UNCERTAINTY_MEASURE_WITH_UNIT (LENGTH_MEASURE( 1.000000000000000082E-05 ), #113, 'distance_accuracy_value', 'NONE');
#65 = EDGE_CURVE ( 'NONE', #28, #159, #58, .T. ) ;
#66 = SURFACE_STYLE_USAGE ( .BOTH. , #130 ) ;
#67 = PRESENTATION_LAYER_ASSIGNMENT (  '', '', ( #48 ) ) ;
#68 = VERTEX_POINT ( 'NONE', #59 ) ;
#69 = EDGE_CURVE ( 'NONE', #159, #28, #37, .T. ) ;
#70 = CARTESIAN_POINT ( 'NONE',  ( 2.549999999999999822, 0.000000000000000000, -0.5000000000000000000 ) ) ;
#71 = AXIS2_PLACEMENT_3D ( 'NONE', #100, #120, #21 ) ;
#72 = LINE ( 'NONE', #20, #184 ) ;
#73 = ORIENTED_EDGE ( 'NONE', *, *, #24, .F. ) ;
#74 = EDGE_CURVE ( 'NONE', #111, #68, #195, .T. ) ;
#75 = ORIENTED_EDGE ( 'NONE', *, *, #74, .T. ) ;
#76 = PRESENTATION_LAYER_ASSIGNMENT (  '', '', ( #164 ) ) ;
#77 = CARTESIAN_POINT ( 'NONE',  ( 0.000000000000000000, 0.000000000000000000, -0.5000000000000000000 ) ) ;
#78 = ORIENTED_EDGE ( 'NONE', *, *, #144, .F. ) ;
#79 = DIRECTION ( 'NONE',  ( 0.000000000000000000, 0.000000000000000000, 1.000000000000000000 ) ) ;
#80 = PRESENTATION_STYLE_ASSIGNMENT (( #210 ) ) ;
#81 = AXIS2_PLACEMENT_3D ( 'NONE', #129, #30, #15 ) ;
#82 = CARTESIAN_POINT ( 'NONE',  ( 0.000000000000000000, 0.000000000000000000, -0.5000000000000000000 ) ) ;
#83 = DIRECTION ( 'NONE',  ( 1.000000000000000000, 0.000000000000000000, 0.000000000000000000 ) ) ;
#84 = CYLINDRICAL_SURFACE ( 'NONE', #63, 6.000000000000000000 ) ;
#85 = AXIS2_PLACEMENT_3D ( 'NONE', #208, #79, #154 ) ;
#86 = EDGE_CURVE ( 'NONE', #111, #173, #72, .T. ) ;
#87 = APPLICATION_CONTEXT ( 'automotive_design' ) ;
#88 = CARTESIAN_POINT ( 'NONE',  ( 6.000000000000000000, 0.000000000000000000, -0.5000000000000000000 ) ) ;
#89 = DIRECTION ( 'NONE',  ( 1.000000000000000000, 0.000000000000000000, 0.000000000000000000 ) ) ;
#90 = FACE_OUTER_BOUND ( 'NONE', #121, .T. ) ;
#91 = EDGE_CURVE ( 'NONE', #57, #62, #157, .T. ) ;
#92 = DIRECTION ( 'NONE',  ( 0.000000000000000000, 0.000000000000000000, 1.000000000000000000 ) ) ;
#93 = LINE ( 'NONE', #196, #36 ) ;
#94 = CARTESIAN_POINT ( 'NONE',  ( -6.000000000000000000, 7.347880794884119736E-16, 0.000000000000000000 ) ) ;
#95 = APPLICATION_PROTOCOL_DEFINITION ( 'draft international standard', 'automotive_design', 1998, #87 ) ;
#96 = PRESENTATION_STYLE_ASSIGNMENT (( #66 ) ) ;
#97 = COLOUR_RGB ( '',0.9254901960784314152, 0.9254901960784314152, 0.9058823529411764719 ) ;
#98 = CARTESIAN_POINT ( 'NONE',  ( 0.000000000000000000, 0.000000000000000000, -0.5000000000000000000 ) ) ;
#99 = CARTESIAN_POINT ( 'NONE',  ( 0.000000000000000000, 0.000000000000000000, -0.5000000000000000000 ) ) ;
#100 = CARTESIAN_POINT ( 'NONE',  ( 0.000000000000000000, 0.000000000000000000, 0.000000000000000000 ) ) ;
#101 = ADVANCED_FACE ( 'NONE', ( #134, #190 ), #8, .T. ) ;
#102 = DIRECTION ( 'NONE',  ( 0.000000000000000000, 0.000000000000000000, 1.000000000000000000 ) ) ;
#103 = ORIENTED_EDGE ( 'NONE', *, *, #118, .F. ) ;
#104 = AXIS2_PLACEMENT_3D ( 'NONE', #161, #197, #83 ) ;
#105 = APPLICATION_PROTOCOL_DEFINITION ( 'draft international standard', 'automotive_design', 1998, #156 ) ;
#106 = EDGE_LOOP ( 'NONE', ( #103, #138, #124, #212 ) ) ;
#107 =( NAMED_UNIT ( * ) SI_UNIT ( $, .STERADIAN. ) SOLID_ANGLE_UNIT ( ) );
#108 = EDGE_LOOP ( 'NONE', ( #47, #125 ) ) ;
#109 = SURFACE_STYLE_FILL_AREA ( #158 ) ;
#110 = VECTOR ( 'NONE', #102, 1000.000000000000000 ) ;
#111 = VERTEX_POINT ( 'NONE', #88 ) ;
#112 = ORIENTED_EDGE ( 'NONE', *, *, #91, .T. ) ;
#113 =( LENGTH_UNIT ( ) NAMED_UNIT ( * ) SI_UNIT ( .MILLI., .METRE. ) );
#114 = CARTESIAN_POINT ( 'NONE',  ( -2.549999999999999822, 3.122849337825750419E-16, 0.000000000000000000 ) ) ;
#115 = AXIS2_PLACEMENT_3D ( 'NONE', #1, #6, #169 ) ;
#116 = DIRECTION ( 'NONE',  ( 1.000000000000000000, 0.000000000000000000, -0.000000000000000000 ) ) ;
#117 = DIRECTION ( 'NONE',  ( 0.000000000000000000, 0.000000000000000000, 1.000000000000000000 ) ) ;
#118 = EDGE_CURVE ( 'NONE', #68, #11, #38, .T. ) ;
#119 = CARTESIAN_POINT ( 'NONE',  ( -6.000000000000000000, 7.347880794884119736E-16, -0.5000000000000000000 ) ) ;
#120 = DIRECTION ( 'NONE',  ( 0.000000000000000000, 0.000000000000000000, 1.000000000000000000 ) ) ;
#121 = EDGE_LOOP ( 'NONE', ( #26, #60 ) ) ;
#122 = ORIENTED_EDGE ( 'NONE', *, *, #91, .F. ) ;
#123 = LINE ( 'NONE', #39, #110 ) ;
#124 = ORIENTED_EDGE ( 'NONE', *, *, #86, .T. ) ;
#125 = ORIENTED_EDGE ( 'NONE', *, *, #65, .F. ) ;
#126 = CARTESIAN_POINT ( 'NONE',  ( 0.000000000000000000, 0.000000000000000000, 0.000000000000000000 ) ) ;
#127 = ORIENTED_EDGE ( 'NONE', *, *, #144, .T. ) ;
#128 = PRODUCT_CONTEXT ( 'NONE', #156, 'mechanical' ) ;
#129 = CARTESIAN_POINT ( 'NONE',  ( 0.000000000000000000, 0.000000000000000000, -0.5000000000000000000 ) ) ;
#130 = SURFACE_SIDE_STYLE ('',( #33 ) ) ;
#131 = CARTESIAN_POINT ( 'NONE',  ( 0.000000000000000000, 0.000000000000000000, -0.5000000000000000000 ) ) ;
#132 = FACE_OUTER_BOUND ( 'NONE', #106, .T. ) ;
#133 = AXIS2_PLACEMENT_3D ( 'NONE', #170, #204, #2 ) ;
#134 = FACE_BOUND ( 'NONE', #108, .T. ) ;
#135 = EDGE_LOOP ( 'NONE', ( #17, #171 ) ) ;
#136 = AXIS2_PLACEMENT_3D ( 'NONE', #82, #92, #155 ) ;
#137 =( GEOMETRIC_REPRESENTATION_CONTEXT ( 3 ) GLOBAL_UNCERTAINTY_ASSIGNED_CONTEXT ( ( #43 ) ) GLOBAL_UNIT_ASSIGNED_CONTEXT ( ( #40, #41, #107 ) ) REPRESENTATION_CONTEXT ( 'NONE', 'WORKASPACE' ) );
#138 = ORIENTED_EDGE ( 'NONE', *, *, #61, .T. ) ;
#139 = CARTESIAN_POINT ( 'NONE',  ( 6.000000000000000000, 0.000000000000000000, 0.000000000000000000 ) ) ;
#140 = CIRCLE ( 'NONE', #104, 6.000000000000000000 ) ;
#141 =( LENGTH_UNIT ( ) NAMED_UNIT ( * ) SI_UNIT ( .MILLI., .METRE. ) );
#142 =( NAMED_UNIT ( * ) PLANE_ANGLE_UNIT ( ) SI_UNIT ( $, .RADIAN. ) );
#143 = DIRECTION ( 'NONE',  ( 1.000000000000000000, 0.000000000000000000, 0.000000000000000000 ) ) ;
#144 = EDGE_CURVE ( 'NONE', #62, #57, #188, .T. ) ;
#145 = ORIENTED_EDGE ( 'NONE', *, *, #65, .T. ) ;
#146 = ADVANCED_BREP_SHAPE_REPRESENTATION ( 'SAFE00H1897-Rondelle imperdable M6', ( #209, #4 ), #137 ) ;
#147 = DIRECTION ( 'NONE',  ( 0.000000000000000000, 0.000000000000000000, 1.000000000000000000 ) ) ;
#148 = DIRECTION ( 'NONE',  ( 0.000000000000000000, 0.000000000000000000, 1.000000000000000000 ) ) ;
#149 = ORIENTED_EDGE ( 'NONE', *, *, #69, .T. ) ;
#150 = DIRECTION ( 'NONE',  ( 0.000000000000000000, 0.000000000000000000, 1.000000000000000000 ) ) ;
#151 = EDGE_LOOP ( 'NONE', ( #122, #193, #145, #7 ) ) ;
#152 = PLANE ( 'NONE',  #85 ) ;
#153 = ADVANCED_FACE ( 'NONE', ( #132 ), #202, .T. ) ;
#154 = DIRECTION ( 'NONE',  ( 1.000000000000000000, 0.000000000000000000, -0.000000000000000000 ) ) ;
#155 = DIRECTION ( 'NONE',  ( 1.000000000000000000, 0.000000000000000000, 0.000000000000000000 ) ) ;
#156 = APPLICATION_CONTEXT ( 'automotive_design' ) ;
#157 = CIRCLE ( 'NONE', #115, 2.549999999999999822 ) ;
#158 = FILL_AREA_STYLE ('',( #44 ) ) ;
#159 = VERTEX_POINT ( 'NONE', #22 ) ;
#160 = ADVANCED_FACE ( 'NONE', ( #167, #90 ), #152, .F. ) ;
#161 = CARTESIAN_POINT ( 'NONE',  ( 0.000000000000000000, 0.000000000000000000, 0.000000000000000000 ) ) ;
#162 = AXIS2_PLACEMENT_3D ( 'NONE', #203, #148, #116 ) ;
#163 = DIRECTION ( 'NONE',  ( 0.000000000000000000, 0.000000000000000000, 1.000000000000000000 ) ) ;
#164 = STYLED_ITEM ( 'NONE', ( #80 ), #209 ) ;
#165 = DIRECTION ( 'NONE',  ( 1.000000000000000000, 0.000000000000000000, 0.000000000000000000 ) ) ;
#166 = DIRECTION ( 'NONE',  ( 0.000000000000000000, 0.000000000000000000, 1.000000000000000000 ) ) ;
#167 = FACE_BOUND ( 'NONE', #42, .T. ) ;
#168 = VECTOR ( 'NONE', #150, 1000.000000000000000 ) ;
#169 = DIRECTION ( 'NONE',  ( 1.000000000000000000, 0.000000000000000000, 0.000000000000000000 ) ) ;
#170 = CARTESIAN_POINT ( 'NONE',  ( 0.000000000000000000, 0.000000000000000000, 0.000000000000000000 ) ) ;
#171 = ORIENTED_EDGE ( 'NONE', *, *, #35, .T. ) ;
#172 = MECHANICAL_DESIGN_GEOMETRIC_PRESENTATION_REPRESENTATION (  '', ( #48 ), #10 ) ;
#173 = VERTEX_POINT ( 'NONE', #139 ) ;
#174 = CARTESIAN_POINT ( 'NONE',  ( -2.549999999999999822, 3.122849337825750419E-16, -0.5000000000000000000 ) ) ;
#175 = CYLINDRICAL_SURFACE ( 'NONE', #81, 2.549999999999999822 ) ;
#176 = AXIS2_PLACEMENT_3D ( 'NONE', #77, #147, #89 ) ;
#177 =( NAMED_UNIT ( * ) SI_UNIT ( $, .STERADIAN. ) SOLID_ANGLE_UNIT ( ) );
#178 = FACE_OUTER_BOUND ( 'NONE', #32, .T. ) ;
#179 = ORIENTED_EDGE ( 'NONE', *, *, #200, .T. ) ;
#180 = SHAPE_DEFINITION_REPRESENTATION ( #51, #146 ) ;
#181 = CIRCLE ( 'NONE', #207, 6.000000000000000000 ) ;
#182 = FILL_AREA_STYLE ('',( #25 ) ) ;
#183 = DIRECTION ( 'NONE',  ( 1.000000000000000000, 0.000000000000000000, 0.000000000000000000 ) ) ;
#184 = VECTOR ( 'NONE', #206, 1000.000000000000000 ) ;
#185 = DIRECTION ( 'NONE',  ( 1.000000000000000000, 0.000000000000000000, 0.000000000000000000 ) ) ;
#186 = DIRECTION ( 'NONE',  ( 0.000000000000000000, 0.000000000000000000, 1.000000000000000000 ) ) ;
#187 = CARTESIAN_POINT ( 'NONE',  ( 0.000000000000000000, 0.000000000000000000, -0.5000000000000000000 ) ) ;
#188 = CIRCLE ( 'NONE', #176, 2.549999999999999822 ) ;
#189 =( GEOMETRIC_REPRESENTATION_CONTEXT ( 3 ) GLOBAL_UNCERTAINTY_ASSIGNED_CONTEXT ( ( #27 ) ) GLOBAL_UNIT_ASSIGNED_CONTEXT ( ( #141, #142, #177 ) ) REPRESENTATION_CONTEXT ( 'NONE', 'WORKASPACE' ) );
#190 = FACE_OUTER_BOUND ( 'NONE', #135, .T. ) ;
#191 = ORIENTED_EDGE ( 'NONE', *, *, #86, .F. ) ;
#192 = PRODUCT_RELATED_PRODUCT_CATEGORY ( 'part', '', ( #12 ) ) ;
#193 = ORIENTED_EDGE ( 'NONE', *, *, #24, .T. ) ;
#194 = MECHANICAL_DESIGN_GEOMETRIC_PRESENTATION_REPRESENTATION (  '', ( #164 ), #189 ) ;
#195 = CIRCLE ( 'NONE', #52, 6.000000000000000000 ) ;
#196 = CARTESIAN_POINT ( 'NONE',  ( -2.549999999999999822, 3.122849337825750419E-16, -0.5000000000000000000 ) ) ;
#197 = DIRECTION ( 'NONE',  ( 0.000000000000000000, 0.000000000000000000, 1.000000000000000000 ) ) ;
#198 = PRODUCT_DEFINITION_CONTEXT ( 'detailed design', #87, 'design' ) ;
#199 =( NAMED_UNIT ( * ) SI_UNIT ( $, .STERADIAN. ) SOLID_ANGLE_UNIT ( ) );
#200 = EDGE_CURVE ( 'NONE', #62, #159, #123, .T. ) ;
#201 = DIRECTION ( 'NONE',  ( 0.000000000000000000, 0.000000000000000000, 1.000000000000000000 ) ) ;
#202 = CYLINDRICAL_SURFACE ( 'NONE', #205, 6.000000000000000000 ) ;
#203 = CARTESIAN_POINT ( 'NONE',  ( 0.000000000000000000, 0.000000000000000000, 0.000000000000000000 ) ) ;
#204 = DIRECTION ( 'NONE',  ( 0.000000000000000000, 0.000000000000000000, 1.000000000000000000 ) ) ;
#205 = AXIS2_PLACEMENT_3D ( 'NONE', #99, #117, #185 ) ;
#206 = DIRECTION ( 'NONE',  ( 0.000000000000000000, 0.000000000000000000, 1.000000000000000000 ) ) ;
#207 = AXIS2_PLACEMENT_3D ( 'NONE', #98, #186, #183 ) ;
#208 = CARTESIAN_POINT ( 'NONE',  ( 0.000000000000000000, 0.000000000000000000, -0.5000000000000000000 ) ) ;
#209 = MANIFOLD_SOLID_BREP ( 'Importée1', #9 ) ;
#210 = SURFACE_STYLE_USAGE ( .BOTH. , #13 ) ;
#211 = EDGE_LOOP ( 'NONE', ( #75, #23, #213, #191 ) ) ;
#212 = ORIENTED_EDGE ( 'NONE', *, *, #35, .F. ) ;
#213 = ORIENTED_EDGE ( 'NONE', *, *, #16, .F. ) ;
#214 = FACE_OUTER_BOUND ( 'NONE', #211, .T. ) ;
ENDSEC;
END-ISO-10303-21;
