ISO-10303-21;
HEADER;
FILE_DESCRIPTION (( 'STEP AP214' ),
    '1' );
FILE_NAME ('SAFE00H1898-Rondelle imperdable M8 (Piece) Ep 0.5mm.step',
    '2023-03-24T10:10:38',
    ( 'Altae' ),
    ( '' ),
    'SwSTEP 2.0',
    'SolidWorks 2021',
    '' );
FILE_SCHEMA (( 'AUTOMOTIVE_DESIGN' ));
ENDSEC;

DATA;
#1 = VERTEX_POINT ( 'NONE', #99 ) ;
#2 = VERTEX_POINT ( 'NONE', #179 ) ;
#3 = PRESENTATION_LAYER_ASSIGNMENT (  '', '', ( #23 ) ) ;
#4 = EDGE_CURVE ( 'NONE', #32, #185, #95, .T. ) ;
#5 = ORIENTED_EDGE ( 'NONE', *, *, #69, .F. ) ;
#6 = EDGE_LOOP ( 'NONE', ( #199, #105 ) ) ;
#7 = DIRECTION ( 'NONE',  ( 0.000000000000000000, 0.000000000000000000, 1.000000000000000000 ) ) ;
#8 = FILL_AREA_STYLE ('',( #189 ) ) ;
#9 = AXIS2_PLACEMENT_3D ( 'NONE', #114, #89, #43 ) ;
#10 = DIRECTION ( 'NONE',  ( 0.000000000000000000, 0.000000000000000000, 1.000000000000000000 ) ) ;
#11 = CARTESIAN_POINT ( 'NONE',  ( 7.000000000000000000, 0.000000000000000000, -0.5000000000000000000 ) ) ;
#12 = LINE ( 'NONE', #170, #146 ) ;
#13 = PRESENTATION_STYLE_ASSIGNMENT (( #33 ) ) ;
#14 = CIRCLE ( 'NONE', #214, 3.100000000000000533 ) ;
#15 = APPLICATION_CONTEXT ( 'automotive_design' ) ;
#16 = EDGE_LOOP ( 'NONE', ( #136, #186, #49, #73 ) ) ;
#17 = DIRECTION ( 'NONE',  ( 1.000000000000000000, 0.000000000000000000, 0.000000000000000000 ) ) ;
#18 = ORIENTED_EDGE ( 'NONE', *, *, #149, .T. ) ;
#19 = DIRECTION ( 'NONE',  ( 0.000000000000000000, 0.000000000000000000, 1.000000000000000000 ) ) ;
#20 = EDGE_CURVE ( 'NONE', #1, #107, #123, .T. ) ;
#21 = SHAPE_DEFINITION_REPRESENTATION ( #71, #162 ) ;
#22 = ORIENTED_EDGE ( 'NONE', *, *, #128, .T. ) ;
#23 = STYLED_ITEM ( 'NONE', ( #13 ), #162 ) ;
#24 = CYLINDRICAL_SURFACE ( 'NONE', #41, 3.100000000000000533 ) ;
#25 = VECTOR ( 'NONE', #147, 1000.000000000000000 ) ;
#26 = DIRECTION ( 'NONE',  ( 1.000000000000000000, 0.000000000000000000, 0.000000000000000000 ) ) ;
#27 = FACE_OUTER_BOUND ( 'NONE', #118, .T. ) ;
#28 =( GEOMETRIC_REPRESENTATION_CONTEXT ( 3 ) GLOBAL_UNCERTAINTY_ASSIGNED_CONTEXT ( ( #64 ) ) GLOBAL_UNIT_ASSIGNED_CONTEXT ( ( #143, #61, #98 ) ) REPRESENTATION_CONTEXT ( 'NONE', 'WORKASPACE' ) );
#29 = DIRECTION ( 'NONE',  ( 1.000000000000000000, 0.000000000000000000, -0.000000000000000000 ) ) ;
#30 = EDGE_CURVE ( 'NONE', #52, #2, #14, .T. ) ;
#31 =( NAMED_UNIT ( * ) PLANE_ANGLE_UNIT ( ) SI_UNIT ( $, .RADIAN. ) );
#32 = VERTEX_POINT ( 'NONE', #108 ) ;
#33 = SURFACE_STYLE_USAGE ( .BOTH. , #120 ) ;
#34 = ORIENTED_EDGE ( 'NONE', *, *, #20, .T. ) ;
#35 = PRODUCT_DEFINITION_FORMATION_WITH_SPECIFIED_SOURCE ( 'ANY', '', #172, .NOT_KNOWN. ) ;
#36 = ORIENTED_EDGE ( 'NONE', *, *, #47, .F. ) ;
#37 = ADVANCED_FACE ( 'NONE', ( #124, #77 ), #79, .F. ) ;
#38 = CARTESIAN_POINT ( 'NONE',  ( 0.000000000000000000, 0.000000000000000000, -0.5000000000000000000 ) ) ;
#39 = AXIS2_PLACEMENT_3D ( 'NONE', #131, #45, #83 ) ;
#40 = DIRECTION ( 'NONE',  ( 1.000000000000000000, 0.000000000000000000, 0.000000000000000000 ) ) ;
#41 = AXIS2_PLACEMENT_3D ( 'NONE', #207, #191, #26 ) ;
#42 = DIRECTION ( 'NONE',  ( 0.000000000000000000, 0.000000000000000000, 1.000000000000000000 ) ) ;
#43 = DIRECTION ( 'NONE',  ( 1.000000000000000000, 0.000000000000000000, 0.000000000000000000 ) ) ;
#44 = AXIS2_PLACEMENT_3D ( 'NONE', #164, #10, #175 ) ;
#45 = DIRECTION ( 'NONE',  ( 0.000000000000000000, 0.000000000000000000, 1.000000000000000000 ) ) ;
#46 = CYLINDRICAL_SURFACE ( 'NONE', #188, 7.000000000000000000 ) ;
#47 = EDGE_CURVE ( 'NONE', #52, #185, #177, .T. ) ;
#48 = FACE_BOUND ( 'NONE', #6, .T. ) ;
#49 = ORIENTED_EDGE ( 'NONE', *, *, #20, .F. ) ;
#50 = ORIENTED_EDGE ( 'NONE', *, *, #47, .T. ) ;
#51 = DIRECTION ( 'NONE',  ( 1.000000000000000000, 0.000000000000000000, 0.000000000000000000 ) ) ;
#52 = VERTEX_POINT ( 'NONE', #205 ) ;
#53 =( LENGTH_UNIT ( ) NAMED_UNIT ( * ) SI_UNIT ( .MILLI., .METRE. ) );
#54 = DIRECTION ( 'NONE',  ( 1.000000000000000000, 0.000000000000000000, 0.000000000000000000 ) ) ;
#55 = ORIENTED_EDGE ( 'NONE', *, *, #200, .T. ) ;
#56 = PRESENTATION_LAYER_ASSIGNMENT (  '', '', ( #142 ) ) ;
#57 = EDGE_LOOP ( 'NONE', ( #5, #68 ) ) ;
#58 = MANIFOLD_SOLID_BREP ( 'Importée1', #208 ) ;
#59 = SURFACE_STYLE_FILL_AREA ( #8 ) ;
#60 = COLOUR_RGB ( '',0.9254901960784314152, 0.9254901960784314152, 0.9058823529411764719 ) ;
#61 =( NAMED_UNIT ( * ) PLANE_ANGLE_UNIT ( ) SI_UNIT ( $, .RADIAN. ) );
#62 = DIRECTION ( 'NONE',  ( 0.000000000000000000, 0.000000000000000000, 1.000000000000000000 ) ) ;
#63 = CARTESIAN_POINT ( 'NONE',  ( 0.000000000000000000, 0.000000000000000000, 0.000000000000000000 ) ) ;
#64 = UNCERTAINTY_MEASURE_WITH_UNIT (LENGTH_MEASURE( 1.000000000000000082E-05 ), #143, 'distance_accuracy_value', 'NONE');
#65 = EDGE_CURVE ( 'NONE', #2, #52, #122, .T. ) ;
#66 = DIRECTION ( 'NONE',  ( 0.000000000000000000, 0.000000000000000000, 1.000000000000000000 ) ) ;
#67 = CIRCLE ( 'NONE', #70, 3.100000000000000533 ) ;
#68 = ORIENTED_EDGE ( 'NONE', *, *, #200, .F. ) ;
#69 = EDGE_CURVE ( 'NONE', #97, #121, #160, .T. ) ;
#70 = AXIS2_PLACEMENT_3D ( 'NONE', #63, #127, #166 ) ;
#71 = PRODUCT_DEFINITION_SHAPE ( 'NONE', 'NONE',  #213 ) ;
#72 = DIRECTION ( 'NONE',  ( 0.000000000000000000, 0.000000000000000000, 1.000000000000000000 ) ) ;
#73 = ORIENTED_EDGE ( 'NONE', *, *, #128, .F. ) ;
#74 = CARTESIAN_POINT ( 'NONE',  ( 0.000000000000000000, 0.000000000000000000, -0.5000000000000000000 ) ) ;
#75 = EDGE_CURVE ( 'NONE', #2, #32, #12, .T. ) ;
#76 = DIRECTION ( 'NONE',  ( 1.000000000000000000, 0.000000000000000000, 0.000000000000000000 ) ) ;
#77 = FACE_OUTER_BOUND ( 'NONE', #57, .T. ) ;
#78 = SURFACE_SIDE_STYLE ('',( #59 ) ) ;
#79 = PLANE ( 'NONE',  #44 ) ;
#80 = AXIS2_PLACEMENT_3D ( 'NONE', #112, #183, #29 ) ;
#81 = CARTESIAN_POINT ( 'NONE',  ( 0.000000000000000000, 0.000000000000000000, 0.000000000000000000 ) ) ;
#82 = CARTESIAN_POINT ( 'NONE',  ( 3.100000000000000533, 0.000000000000000000, -0.5000000000000000000 ) ) ;
#83 = DIRECTION ( 'NONE',  ( 1.000000000000000000, 0.000000000000000000, 0.000000000000000000 ) ) ;
#84 = FACE_OUTER_BOUND ( 'NONE', #195, .T. ) ;
#85 = AXIS2_PLACEMENT_3D ( 'NONE', #145, #204, #17 ) ;
#86 = CARTESIAN_POINT ( 'NONE',  ( -7.000000000000000000, 8.572527594031473190E-16, 0.000000000000000000 ) ) ;
#87 = ADVANCED_FACE ( 'NONE', ( #27 ), #24, .F. ) ;
#88 = UNCERTAINTY_MEASURE_WITH_UNIT (LENGTH_MEASURE( 1.000000000000000082E-05 ), #91, 'distance_accuracy_value', 'NONE');
#89 = DIRECTION ( 'NONE',  ( 0.000000000000000000, 0.000000000000000000, 1.000000000000000000 ) ) ;
#90 = CIRCLE ( 'NONE', #103, 7.000000000000000000 ) ;
#91 =( LENGTH_UNIT ( ) NAMED_UNIT ( * ) SI_UNIT ( .MILLI., .METRE. ) );
#92 = AXIS2_PLACEMENT_3D ( 'NONE', #163, #165, #76 ) ;
#93 = AXIS2_PLACEMENT_3D ( 'NONE', #81, #19, #201 ) ;
#94 = ORIENTED_EDGE ( 'NONE', *, *, #75, .T. ) ;
#95 = CIRCLE ( 'NONE', #151, 3.100000000000000533 ) ;
#96 = UNCERTAINTY_MEASURE_WITH_UNIT (LENGTH_MEASURE( 1.000000000000000082E-05 ), #53, 'distance_accuracy_value', 'NONE');
#97 = VERTEX_POINT ( 'NONE', #150 ) ;
#98 =( NAMED_UNIT ( * ) SI_UNIT ( $, .STERADIAN. ) SOLID_ANGLE_UNIT ( ) );
#99 = CARTESIAN_POINT ( 'NONE',  ( 7.000000000000000000, 0.000000000000000000, 0.000000000000000000 ) ) ;
#100 = PRODUCT_CONTEXT ( 'NONE', #15, 'mechanical' ) ;
#101 = AXIS2_PLACEMENT_3D ( 'NONE', #74, #72, #51 ) ;
#102 = CARTESIAN_POINT ( 'NONE',  ( -7.000000000000000000, 8.572527594031473190E-16, -0.5000000000000000000 ) ) ;
#103 = AXIS2_PLACEMENT_3D ( 'NONE', #168, #106, #54 ) ;
#104 = LINE ( 'NONE', #182, #167 ) ;
#105 = ORIENTED_EDGE ( 'NONE', *, *, #4, .F. ) ;
#106 = DIRECTION ( 'NONE',  ( 0.000000000000000000, 0.000000000000000000, 1.000000000000000000 ) ) ;
#107 = VERTEX_POINT ( 'NONE', #86 ) ;
#108 = CARTESIAN_POINT ( 'NONE',  ( -3.100000000000000533, 3.796405077356795411E-16, 0.000000000000000000 ) ) ;
#109 = ADVANCED_FACE ( 'NONE', ( #115 ), #193, .F. ) ;
#110 = ORIENTED_EDGE ( 'NONE', *, *, #126, .F. ) ;
#111 = DIRECTION ( 'NONE',  ( 0.000000000000000000, 0.000000000000000000, 1.000000000000000000 ) ) ;
#112 = CARTESIAN_POINT ( 'NONE',  ( 0.000000000000000000, 0.000000000000000000, 0.000000000000000000 ) ) ;
#113 = VECTOR ( 'NONE', #66, 1000.000000000000000 ) ;
#114 = CARTESIAN_POINT ( 'NONE',  ( 0.000000000000000000, 0.000000000000000000, -0.5000000000000000000 ) ) ;
#115 = FACE_OUTER_BOUND ( 'NONE', #196, .T. ) ;
#116 = EDGE_LOOP ( 'NONE', ( #140, #125 ) ) ;
#117 = FACE_OUTER_BOUND ( 'NONE', #16, .T. ) ;
#118 = EDGE_LOOP ( 'NONE', ( #157, #94, #138, #36 ) ) ;
#119 =( NAMED_UNIT ( * ) SI_UNIT ( $, .STERADIAN. ) SOLID_ANGLE_UNIT ( ) );
#120 = SURFACE_SIDE_STYLE ('',( #173 ) ) ;
#121 = VERTEX_POINT ( 'NONE', #102 ) ;
#122 = CIRCLE ( 'NONE', #85, 3.100000000000000533 ) ;
#123 = CIRCLE ( 'NONE', #92, 7.000000000000000000 ) ;
#124 = FACE_BOUND ( 'NONE', #116, .T. ) ;
#125 = ORIENTED_EDGE ( 'NONE', *, *, #65, .T. ) ;
#126 = EDGE_CURVE ( 'NONE', #121, #107, #104, .T. ) ;
#127 = DIRECTION ( 'NONE',  ( 0.000000000000000000, 0.000000000000000000, 1.000000000000000000 ) ) ;
#128 = EDGE_CURVE ( 'NONE', #97, #1, #181, .T. ) ;
#129 = CARTESIAN_POINT ( 'NONE',  ( 3.100000000000000533, 0.000000000000000000, 0.000000000000000000 ) ) ;
#130 = DIRECTION ( 'NONE',  ( 0.000000000000000000, 0.000000000000000000, 1.000000000000000000 ) ) ;
#131 = CARTESIAN_POINT ( 'NONE',  ( 0.000000000000000000, 0.000000000000000000, -0.5000000000000000000 ) ) ;
#132 =( GEOMETRIC_REPRESENTATION_CONTEXT ( 3 ) GLOBAL_UNCERTAINTY_ASSIGNED_CONTEXT ( ( #96 ) ) GLOBAL_UNIT_ASSIGNED_CONTEXT ( ( #53, #31, #119 ) ) REPRESENTATION_CONTEXT ( 'NONE', 'WORKASPACE' ) );
#133 = DIRECTION ( 'NONE',  ( 1.000000000000000000, 0.000000000000000000, 0.000000000000000000 ) ) ;
#134 =( NAMED_UNIT ( * ) PLANE_ANGLE_UNIT ( ) SI_UNIT ( $, .RADIAN. ) );
#135 = ORIENTED_EDGE ( 'NONE', *, *, #149, .F. ) ;
#136 = ORIENTED_EDGE ( 'NONE', *, *, #69, .T. ) ;
#137 = ORIENTED_EDGE ( 'NONE', *, *, #75, .F. ) ;
#138 = ORIENTED_EDGE ( 'NONE', *, *, #4, .T. ) ;
#139 = FILL_AREA_STYLE_COLOUR ( '', #60 ) ;
#140 = ORIENTED_EDGE ( 'NONE', *, *, #30, .T. ) ;
#141 = DIRECTION ( 'NONE',  ( 1.000000000000000000, 0.000000000000000000, 0.000000000000000000 ) ) ;
#142 = STYLED_ITEM ( 'NONE', ( #174 ), #58 ) ;
#143 =( LENGTH_UNIT ( ) NAMED_UNIT ( * ) SI_UNIT ( .MILLI., .METRE. ) );
#144 = APPLICATION_PROTOCOL_DEFINITION ( 'draft international standard', 'automotive_design', 1998, #15 ) ;
#145 = CARTESIAN_POINT ( 'NONE',  ( 0.000000000000000000, 0.000000000000000000, -0.5000000000000000000 ) ) ;
#146 = VECTOR ( 'NONE', #62, 1000.000000000000000 ) ;
#147 = DIRECTION ( 'NONE',  ( 0.000000000000000000, 0.000000000000000000, 1.000000000000000000 ) ) ;
#148 = DIRECTION ( 'NONE',  ( 1.000000000000000000, 0.000000000000000000, 0.000000000000000000 ) ) ;
#149 = EDGE_CURVE ( 'NONE', #107, #1, #187, .T. ) ;
#150 = CARTESIAN_POINT ( 'NONE',  ( 7.000000000000000000, 0.000000000000000000, -0.5000000000000000000 ) ) ;
#151 = AXIS2_PLACEMENT_3D ( 'NONE', #202, #42, #40 ) ;
#152 = CARTESIAN_POINT ( 'NONE',  ( 0.000000000000000000, 0.000000000000000000, 0.000000000000000000 ) ) ;
#153 = APPLICATION_CONTEXT ( 'automotive_design' ) ;
#154 = AXIS2_PLACEMENT_3D ( 'NONE', #152, #212, #133 ) ;
#155 = COLOUR_RGB ( '',0.9254901960784314152, 0.9254901960784314152, 0.9058823529411764719 ) ;
#156 = ORIENTED_EDGE ( 'NONE', *, *, #30, .F. ) ;
#157 = ORIENTED_EDGE ( 'NONE', *, *, #65, .F. ) ;
#158 = PRODUCT_DEFINITION_CONTEXT ( 'detailed design', #153, 'design' ) ;
#159 =( NAMED_UNIT ( * ) SI_UNIT ( $, .STERADIAN. ) SOLID_ANGLE_UNIT ( ) );
#160 = CIRCLE ( 'NONE', #39, 7.000000000000000000 ) ;
#161 = ORIENTED_EDGE ( 'NONE', *, *, #171, .T. ) ;
#162 = ADVANCED_BREP_SHAPE_REPRESENTATION ( 'SAFE00H1898-Rondelle imperdable M8 (Piece) Ep 0.5mm', ( #58, #93 ), #132 ) ;
#163 = CARTESIAN_POINT ( 'NONE',  ( 0.000000000000000000, 0.000000000000000000, 0.000000000000000000 ) ) ;
#164 = CARTESIAN_POINT ( 'NONE',  ( 0.000000000000000000, 0.000000000000000000, -0.5000000000000000000 ) ) ;
#165 = DIRECTION ( 'NONE',  ( 0.000000000000000000, 0.000000000000000000, 1.000000000000000000 ) ) ;
#166 = DIRECTION ( 'NONE',  ( 1.000000000000000000, 0.000000000000000000, 0.000000000000000000 ) ) ;
#167 = VECTOR ( 'NONE', #111, 1000.000000000000000 ) ;
#168 = CARTESIAN_POINT ( 'NONE',  ( 0.000000000000000000, 0.000000000000000000, -0.5000000000000000000 ) ) ;
#169 = ADVANCED_FACE ( 'NONE', ( #210 ), #46, .T. ) ;
#170 = CARTESIAN_POINT ( 'NONE',  ( -3.100000000000000533, 3.796405077356795411E-16, -0.5000000000000000000 ) ) ;
#171 = EDGE_CURVE ( 'NONE', #185, #32, #67, .T. ) ;
#172 = PRODUCT ( 'SAFE00H1898-Rondelle imperdable M8 (Piece) Ep 0.5mm', 'SAFE00H1898-Rondelle imperdable M8 (Piece) Ep 0.5mm', '', ( #100 ) ) ;
#173 = SURFACE_STYLE_FILL_AREA ( #197 ) ;
#174 = PRESENTATION_STYLE_ASSIGNMENT (( #178 ) ) ;
#175 = DIRECTION ( 'NONE',  ( 1.000000000000000000, 0.000000000000000000, -0.000000000000000000 ) ) ;
#176 = APPLICATION_PROTOCOL_DEFINITION ( 'draft international standard', 'automotive_design', 1998, #153 ) ;
#177 = LINE ( 'NONE', #82, #25 ) ;
#178 = SURFACE_STYLE_USAGE ( .BOTH. , #78 ) ;
#179 = CARTESIAN_POINT ( 'NONE',  ( -3.100000000000000533, 3.796405077356795411E-16, -0.5000000000000000000 ) ) ;
#180 = MECHANICAL_DESIGN_GEOMETRIC_PRESENTATION_REPRESENTATION (  '', ( #142 ), #28 ) ;
#181 = LINE ( 'NONE', #11, #113 ) ;
#182 = CARTESIAN_POINT ( 'NONE',  ( -7.000000000000000000, 8.572527594031473190E-16, -0.5000000000000000000 ) ) ;
#183 = DIRECTION ( 'NONE',  ( 0.000000000000000000, 0.000000000000000000, 1.000000000000000000 ) ) ;
#184 = CYLINDRICAL_SURFACE ( 'NONE', #101, 7.000000000000000000 ) ;
#185 = VERTEX_POINT ( 'NONE', #129 ) ;
#186 = ORIENTED_EDGE ( 'NONE', *, *, #126, .T. ) ;
#187 = CIRCLE ( 'NONE', #154, 7.000000000000000000 ) ;
#188 = AXIS2_PLACEMENT_3D ( 'NONE', #194, #130, #148 ) ;
#189 = FILL_AREA_STYLE_COLOUR ( '', #155 ) ;
#190 = ADVANCED_FACE ( 'NONE', ( #48, #84 ), #192, .T. ) ;
#191 = DIRECTION ( 'NONE',  ( 0.000000000000000000, 0.000000000000000000, 1.000000000000000000 ) ) ;
#192 = PLANE ( 'NONE',  #80 ) ;
#193 = CYLINDRICAL_SURFACE ( 'NONE', #9, 3.100000000000000533 ) ;
#194 = CARTESIAN_POINT ( 'NONE',  ( 0.000000000000000000, 0.000000000000000000, -0.5000000000000000000 ) ) ;
#195 = EDGE_LOOP ( 'NONE', ( #34, #18 ) ) ;
#196 = EDGE_LOOP ( 'NONE', ( #137, #156, #50, #161 ) ) ;
#197 = FILL_AREA_STYLE ('',( #139 ) ) ;
#198 = EDGE_LOOP ( 'NONE', ( #110, #55, #22, #135 ) ) ;
#199 = ORIENTED_EDGE ( 'NONE', *, *, #171, .F. ) ;
#200 = EDGE_CURVE ( 'NONE', #121, #97, #90, .T. ) ;
#201 = DIRECTION ( 'NONE',  ( 1.000000000000000000, 0.000000000000000000, 0.000000000000000000 ) ) ;
#202 = CARTESIAN_POINT ( 'NONE',  ( 0.000000000000000000, 0.000000000000000000, 0.000000000000000000 ) ) ;
#203 = MECHANICAL_DESIGN_GEOMETRIC_PRESENTATION_REPRESENTATION (  '', ( #23 ), #211 ) ;
#204 = DIRECTION ( 'NONE',  ( 0.000000000000000000, 0.000000000000000000, 1.000000000000000000 ) ) ;
#205 = CARTESIAN_POINT ( 'NONE',  ( 3.100000000000000533, 0.000000000000000000, -0.5000000000000000000 ) ) ;
#206 = PRODUCT_RELATED_PRODUCT_CATEGORY ( 'part', '', ( #172 ) ) ;
#207 = CARTESIAN_POINT ( 'NONE',  ( 0.000000000000000000, 0.000000000000000000, -0.5000000000000000000 ) ) ;
#208 = CLOSED_SHELL ( 'NONE', ( #209, #87, #109, #169, #37, #190 ) ) ;
#209 = ADVANCED_FACE ( 'NONE', ( #117 ), #184, .T. ) ;
#210 = FACE_OUTER_BOUND ( 'NONE', #198, .T. ) ;
#211 =( GEOMETRIC_REPRESENTATION_CONTEXT ( 3 ) GLOBAL_UNCERTAINTY_ASSIGNED_CONTEXT ( ( #88 ) ) GLOBAL_UNIT_ASSIGNED_CONTEXT ( ( #91, #134, #159 ) ) REPRESENTATION_CONTEXT ( 'NONE', 'WORKASPACE' ) );
#212 = DIRECTION ( 'NONE',  ( 0.000000000000000000, 0.000000000000000000, 1.000000000000000000 ) ) ;
#213 = PRODUCT_DEFINITION ( 'UNKNOWN', '', #35, #158 ) ;
#214 = AXIS2_PLACEMENT_3D ( 'NONE', #38, #7, #141 ) ;
ENDSEC;
END-ISO-10303-21;
