ISO-10303-21;
HEADER;
FILE_DESCRIPTION(('STEP AP203'),'1');
FILE_NAME('SAFE06E4552.stp','2023-10-10T09:23:01',(' '),(' '),'Spatial InterOp 3D',' ',' ');
FILE_SCHEMA(('CONFIG_CONTROL_DESIGN'));
ENDSEC;
DATA;
#1=DESIGN_CONTEXT('',#53,'design');
#2=APPLICATION_PROTOCOL_DEFINITION('INTERNATIONAL STANDARD','config_control_design',1994,#53);
#3=PRODUCT_CATEGORY_RELATIONSHIP('NONE','NONE',#54,#55);
#4=DATE_AND_TIME(#56,#57);
#5=DATE_TIME_ROLE('creation_date');
#6=DATE_TIME_ROLE('classification_date');
#7=PERSON_AND_ORGANIZATION_ROLE('creator');
#8=PERSON_AND_ORGANIZATION_ROLE('design_supplier');
#9=PERSON_AND_ORGANIZATION_ROLE('classification_officer');
#10=PERSON_AND_ORGANIZATION_ROLE('design_owner');
#11=APPROVAL_PERSON_ORGANIZATION(#58,#59,#60);
#12=APPROVAL_DATE_TIME(#4,#59);
#13=CC_DESIGN_APPROVAL(#59,(#61,#62,#63));
#14=CC_DESIGN_DATE_AND_TIME_ASSIGNMENT(#4,#5,(#63));
#15=CC_DESIGN_DATE_AND_TIME_ASSIGNMENT(#4,#6,(#61));
#16=CC_DESIGN_PERSON_AND_ORGANIZATION_ASSIGNMENT(#58,#10,(#64));
#17=CC_DESIGN_PERSON_AND_ORGANIZATION_ASSIGNMENT(#58,#7,(#63));
#18=CC_DESIGN_PERSON_AND_ORGANIZATION_ASSIGNMENT(#58,#7,(#62));
#19=CC_DESIGN_PERSON_AND_ORGANIZATION_ASSIGNMENT(#58,#8,(#62));
#20=CC_DESIGN_SECURITY_CLASSIFICATION(#61,(#62));
#21=CC_DESIGN_PERSON_AND_ORGANIZATION_ASSIGNMENT(#58,#9,(#61));
#22=SHAPE_DEFINITION_REPRESENTATION(#65,#66);
#23= (GEOMETRIC_REPRESENTATION_CONTEXT(3)GLOBAL_UNCERTAINTY_ASSIGNED_CONTEXT((#69))GLOBAL_UNIT_ASSIGNED_CONTEXT((#71,#72,#73))REPRESENTATION_CONTEXT('NONE','WORKSPACE'));
#24=PROPERTY_DEFINITION_REPRESENTATION(#75,#76);
#25=GENERAL_PROPERTY_ASSOCIATION('','',#77,#75);
#26=PROPERTY_DEFINITION_REPRESENTATION(#78,#79);
#27=GENERAL_PROPERTY_ASSOCIATION('','',#80,#78);
#28=PROPERTY_DEFINITION_REPRESENTATION(#81,#82);
#29=GENERAL_PROPERTY_ASSOCIATION('','',#83,#81);
#30=PROPERTY_DEFINITION_REPRESENTATION(#84,#85);
#31=GENERAL_PROPERTY_ASSOCIATION('','',#86,#84);
#32=PROPERTY_DEFINITION_REPRESENTATION(#87,#88);
#33=GENERAL_PROPERTY_ASSOCIATION('','',#89,#87);
#34=PROPERTY_DEFINITION_REPRESENTATION(#90,#91);
#35=GENERAL_PROPERTY_ASSOCIATION('','',#92,#90);
#36=PROPERTY_DEFINITION_REPRESENTATION(#93,#94);
#37=GENERAL_PROPERTY_ASSOCIATION('','',#95,#93);
#38=PROPERTY_DEFINITION_REPRESENTATION(#96,#97);
#39=GENERAL_PROPERTY_ASSOCIATION('','',#98,#96);
#40=PROPERTY_DEFINITION_REPRESENTATION(#99,#100);
#41=GENERAL_PROPERTY_ASSOCIATION('','',#101,#99);
#42=PROPERTY_DEFINITION_REPRESENTATION(#102,#103);
#43=GENERAL_PROPERTY_ASSOCIATION('','',#104,#102);
#44=PROPERTY_DEFINITION_REPRESENTATION(#105,#106);
#45=GENERAL_PROPERTY_ASSOCIATION('','',#107,#105);
#46=PROPERTY_DEFINITION_REPRESENTATION(#108,#109);
#47=GENERAL_PROPERTY_ASSOCIATION('','',#110,#108);
#48=PROPERTY_DEFINITION_REPRESENTATION(#111,#112);
#49=GENERAL_PROPERTY_ASSOCIATION('','',#113,#111);
#53=APPLICATION_CONTEXT('CONFIGURATION CONTROLLED 3D DESIGNS OF MECHANICAL PARTS AND ASSEMBLIES');
#54=PRODUCT_CATEGORY('part','NONE');
#55=PRODUCT_RELATED_PRODUCT_CATEGORY('detail',' ',(#64));
#56=CALENDAR_DATE(2023,10,9);
#57=LOCAL_TIME(11,23,1.0,#114);
#58=PERSON_AND_ORGANIZATION(#115,#116);
#59=APPROVAL(#117,'SOLID MODEL');
#60=APPROVAL_ROLE('APPROVED');
#61=SECURITY_CLASSIFICATION('','',#118);
#62=PRODUCT_DEFINITION_FORMATION_WITH_SPECIFIED_SOURCE('A','NONE',#64,.NOT_KNOWN.);
#63=PRODUCT_DEFINITION('','NONE',#62,#1);
#64=PRODUCT('Profil\X2\00E9\X0\ de bordure 6 15x8','%#@![PREFIXE CATALOGUE=SAFE]06E4552','Profil\X2\00E9\X0\ de bordure 6 15x8',(#119));
#65=PRODUCT_DEFINITION_SHAPE('NONE','NONE',#63);
#66=ADVANCED_BREP_SHAPE_REPRESENTATION('1',(#120,#121),#23);
#69=UNCERTAINTY_MEASURE_WITH_UNIT(LENGTH_MEASURE(0.001),#71,'','');
#71= (CONVERSION_BASED_UNIT('MILLIMETRE',#124)LENGTH_UNIT()NAMED_UNIT(#127));
#72= (NAMED_UNIT(#129)PLANE_ANGLE_UNIT()SI_UNIT($,.RADIAN.));
#73= (NAMED_UNIT(#129)SOLID_ANGLE_UNIT()SI_UNIT($,.STERADIAN.));
#75=PROPERTY_DEFINITION('PdmObjectId','',#63);
#76=REPRESENTATION('',(#135),#23);
#77=GENERAL_PROPERTY('','19_a196914b-2902-4653-bb58-d967e9033e40&5_504_0_42','');
#78=PROPERTY_DEFINITION('CODE_TRANSEPT','',#63);
#79=REPRESENTATION('',(#136),#23);
#80=GENERAL_PROPERTY('','','');
#81=PROPERTY_DEFINITION('PREFIXE CATALOGUE','',#63);
#82=REPRESENTATION('',(#137),#23);
#83=GENERAL_PROPERTY('','SAFE','');
#84=PROPERTY_DEFINITION('Type de production hellomoov','',#63);
#85=REPRESENTATION('',(#138),#23);
#86=GENERAL_PROPERTY('','d\X2\00E9\X0\bit interne avec/sans usinage interne','');
#87=PROPERTY_DEFINITION('DESIGNATION_ENG','',#63);
#88=REPRESENTATION('',(#139),#23);
#89=GENERAL_PROPERTY('','-','');
#90=PROPERTY_DEFINITION('GammeProfil','',#63);
#91=REPRESENTATION('',(#140),#23);
#92=GENERAL_PROPERTY('','h840','');
#93=PROPERTY_DEFINITION('LigneProfil','',#63);
#94=REPRESENTATION('',(#141),#23);
#95=GENERAL_PROPERTY('','6-30','');
#96=PROPERTY_DEFINITION('D\X2\00E9\X0\signation du mat\X2\00E9\X0\riau','',#63);
#97=REPRESENTATION('',(#142),#23);
#98=GENERAL_PROPERTY('','Aluminium EN AW 6063 T66','');
#99=PROPERTY_DEFINITION('Nom du mat\X2\00E9\X0\riau','',#63);
#100=REPRESENTATION('',(#143),#23);
#101=GENERAL_PROPERTY('','Aluminium EN AW 6063 T66','');
#102=PROPERTY_DEFINITION('CreationDate','',#63);
#103=REPRESENTATION('',(#144),#23);
#104=GENERAL_PROPERTY('','02/10/2023 10:13:53','');
#105=PROPERTY_DEFINITION('Minor Revision','',#63);
#106=REPRESENTATION('',(#145),#23);
#107=GENERAL_PROPERTY('','0','');
#108=PROPERTY_DEFINITION('Complementary Part Number','',#63);
#109=REPRESENTATION('',(#146),#23);
#110=GENERAL_PROPERTY('','%#@![$PartNumber=SAFE06E4552]','');
#111=PROPERTY_DEFINITION('Comment','',#63);
#112=REPRESENTATION('',(#147),#23);
#113=GENERAL_PROPERTY('','D\X2\00E9\X0\riv\X2\00E9\X0\','');
#114=COORDINATED_UNIVERSAL_TIME_OFFSET(1,0,.AHEAD.);
#115=PERSON('','UNSPECIFIED',$,$,$,$);
#116=ORGANIZATION('UNSPECIFIED','UNSPECIFIED','UNSPECIFIED');
#117=APPROVAL_STATUS('approved');
#118=SECURITY_CLASSIFICATION_LEVEL('unclassified');
#119=MECHANICAL_CONTEXT('',#53,'mechanical');
#120=MANIFOLD_SOLID_BREP('1',#148);
#121=AXIS2_PLACEMENT_3D('',#149,#150,#151);
#124=LENGTH_MEASURE_WITH_UNIT(LENGTH_MEASURE(1.0),#152);
#127=DIMENSIONAL_EXPONENTS(1.0,0.0,0.0,0.0,0.0,0.0,0.0);
#129=DIMENSIONAL_EXPONENTS(0.0,0.0,0.0,0.0,0.0,0.0,0.0);
#135=DESCRIPTIVE_REPRESENTATION_ITEM('','19_a196914b-2902-4653-bb58-d967e9033e40&5_504_0_42');
#136=DESCRIPTIVE_REPRESENTATION_ITEM('','');
#137=DESCRIPTIVE_REPRESENTATION_ITEM('','SAFE');
#138=DESCRIPTIVE_REPRESENTATION_ITEM('','d\X2\00E9\X0\bit interne avec/sans usinage interne');
#139=DESCRIPTIVE_REPRESENTATION_ITEM('','-');
#140=DESCRIPTIVE_REPRESENTATION_ITEM('','h840');
#141=DESCRIPTIVE_REPRESENTATION_ITEM('','6-30');
#142=DESCRIPTIVE_REPRESENTATION_ITEM('','Aluminium EN AW 6063 T66');
#143=DESCRIPTIVE_REPRESENTATION_ITEM('','Aluminium EN AW 6063 T66');
#144=DESCRIPTIVE_REPRESENTATION_ITEM('','02/10/2023 10:13:53');
#145=DESCRIPTIVE_REPRESENTATION_ITEM('','0');
#146=DESCRIPTIVE_REPRESENTATION_ITEM('','%#@![$PartNumber=SAFE06E4552]');
#147=DESCRIPTIVE_REPRESENTATION_ITEM('','D\X2\00E9\X0\riv\X2\00E9\X0\');
#148=CLOSED_SHELL('',(#153,#154,#155,#156,#157,#158,#159,#160,#161,#162,#163,#164,#165,#166));
#149=CARTESIAN_POINT('',(0.0,0.0,0.0));
#150=DIRECTION('',(0.0,0.0,1.0));
#151=DIRECTION('',(1.0,0.0,0.0));
#152= (NAMED_UNIT(#127)LENGTH_UNIT()SI_UNIT(.MILLI.,.METRE.));
#153=ADVANCED_FACE('',(#168),#169,.F.);
#154=ADVANCED_FACE('',(#170),#171,.T.);
#155=ADVANCED_FACE('',(#172),#173,.F.);
#156=ADVANCED_FACE('',(#174),#175,.T.);
#157=ADVANCED_FACE('',(#176),#177,.F.);
#158=ADVANCED_FACE('',(#178),#179,.F.);
#159=ADVANCED_FACE('',(#180),#181,.F.);
#160=ADVANCED_FACE('',(#182),#183,.T.);
#161=ADVANCED_FACE('',(#184),#185,.F.);
#162=ADVANCED_FACE('',(#186),#187,.T.);
#163=ADVANCED_FACE('',(#188),#189,.F.);
#164=ADVANCED_FACE('',(#190),#191,.T.);
#165=ADVANCED_FACE('',(#192),#193,.T.);
#166=ADVANCED_FACE('',(#194),#195,.T.);
#168=FACE_OUTER_BOUND('',#196,.T.);
#169=PLANE('',#197);
#170=FACE_OUTER_BOUND('',#198,.T.);
#171=CYLINDRICAL_SURFACE('',#199,0.799999999999893);
#172=FACE_OUTER_BOUND('',#200,.T.);
#173=PLANE('',#201);
#174=FACE_OUTER_BOUND('',#202,.T.);
#175=CYLINDRICAL_SURFACE('',#203,0.799999999999901);
#176=FACE_OUTER_BOUND('',#204,.T.);
#177=PLANE('',#205);
#178=FACE_OUTER_BOUND('',#206,.T.);
#179=CYLINDRICAL_SURFACE('',#207,0.300000000000116);
#180=FACE_OUTER_BOUND('',#208,.T.);
#181=PLANE('',#209);
#182=FACE_OUTER_BOUND('',#210,.T.);
#183=CYLINDRICAL_SURFACE('',#211,0.800000000000166);
#184=FACE_OUTER_BOUND('',#212,.T.);
#185=PLANE('',#213);
#186=FACE_OUTER_BOUND('',#214,.T.);
#187=CYLINDRICAL_SURFACE('',#215,0.799999999999915);
#188=FACE_OUTER_BOUND('',#216,.T.);
#189=PLANE('',#217);
#190=FACE_OUTER_BOUND('',#218,.T.);
#191=CYLINDRICAL_SURFACE('',#219,0.799999999999971);
#192=FACE_OUTER_BOUND('',#220,.T.);
#193=PLANE('',#221);
#194=FACE_OUTER_BOUND('',#222,.T.);
#195=PLANE('',#223);
#196=EDGE_LOOP('',(#224,#225,#226,#227));
#197=AXIS2_PLACEMENT_3D('',#228,#229,#230);
#198=EDGE_LOOP('',(#231,#232,#233,#234));
#199=AXIS2_PLACEMENT_3D('',#235,#236,#237);
#200=EDGE_LOOP('',(#238,#239,#240,#241));
#201=AXIS2_PLACEMENT_3D('',#242,#243,#244);
#202=EDGE_LOOP('',(#245,#246,#247,#248));
#203=AXIS2_PLACEMENT_3D('',#249,#250,#251);
#204=EDGE_LOOP('',(#252,#253,#254,#255));
#205=AXIS2_PLACEMENT_3D('',#256,#257,#258);
#206=EDGE_LOOP('',(#259,#260,#261,#262));
#207=AXIS2_PLACEMENT_3D('',#263,#264,#265);
#208=EDGE_LOOP('',(#266,#267,#268,#269));
#209=AXIS2_PLACEMENT_3D('',#270,#271,#272);
#210=EDGE_LOOP('',(#273,#274,#275,#276));
#211=AXIS2_PLACEMENT_3D('',#277,#278,#279);
#212=EDGE_LOOP('',(#280,#281,#282,#283));
#213=AXIS2_PLACEMENT_3D('',#284,#285,#286);
#214=EDGE_LOOP('',(#287,#288,#289,#290));
#215=AXIS2_PLACEMENT_3D('',#291,#292,#293);
#216=EDGE_LOOP('',(#294,#295,#296,#297));
#217=AXIS2_PLACEMENT_3D('',#298,#299,#300);
#218=EDGE_LOOP('',(#301,#302,#303,#304));
#219=AXIS2_PLACEMENT_3D('',#305,#306,#307);
#220=EDGE_LOOP('',(#308,#309,#310,#311,#312,#313,#314,#315,#316,#317,#318,#319));
#221=AXIS2_PLACEMENT_3D('',#320,#321,#322);
#222=EDGE_LOOP('',(#323,#324,#325,#326,#327,#328,#329,#330,#331,#332,#333,#334));
#223=AXIS2_PLACEMENT_3D('',#335,#336,#337);
#224=ORIENTED_EDGE('',*,*,#338,.F.);
#225=ORIENTED_EDGE('',*,*,#339,.F.);
#226=ORIENTED_EDGE('',*,*,#340,.F.);
#227=ORIENTED_EDGE('',*,*,#341,.T.);
#228=CARTESIAN_POINT('',(50000.0,-7.3,-4.59701721133854E-14));
#229=DIRECTION('',(0.0,1.0,3.39181807640366E-15));
#230=DIRECTION('',(0.0,-3.39181807640366E-15,1.0));
#231=ORIENTED_EDGE('',*,*,#342,.F.);
#232=ORIENTED_EDGE('',*,*,#343,.F.);
#233=ORIENTED_EDGE('',*,*,#344,.F.);
#234=ORIENTED_EDGE('',*,*,#339,.T.);
#235=CARTESIAN_POINT('',(50000.0,-6.5,-3.09999999999985));
#236=DIRECTION('',(-1.0,0.0,0.0));
#237=DIRECTION('',(0.0,-1.0,0.0));
#238=ORIENTED_EDGE('',*,*,#345,.F.);
#239=ORIENTED_EDGE('',*,*,#346,.F.);
#240=ORIENTED_EDGE('',*,*,#347,.F.);
#241=ORIENTED_EDGE('',*,*,#343,.T.);
#242=CARTESIAN_POINT('',(50000.0,-5.44999999999976,-3.89999999999975));
#243=DIRECTION('',(0.0,3.99680288865057E-15,1.0));
#244=DIRECTION('',(0.0,-1.0,3.99680288865057E-15));
#245=ORIENTED_EDGE('',*,*,#348,.F.);
#246=ORIENTED_EDGE('',*,*,#349,.F.);
#247=ORIENTED_EDGE('',*,*,#350,.F.);
#248=ORIENTED_EDGE('',*,*,#346,.T.);
#249=CARTESIAN_POINT('',(50000.0,-4.39999999999952,-3.09999999999986));
#250=DIRECTION('',(-1.0,0.0,0.0));
#251=DIRECTION('',(0.0,-1.0,0.0));
#252=ORIENTED_EDGE('',*,*,#351,.F.);
#253=ORIENTED_EDGE('',*,*,#352,.F.);
#254=ORIENTED_EDGE('',*,*,#353,.F.);
#255=ORIENTED_EDGE('',*,*,#349,.T.);
#256=CARTESIAN_POINT('',(50000.0,-3.59999999999963,-0.800000000000158));
#257=DIRECTION('',(0.0,-1.0,-6.40093989097423E-15));
#258=DIRECTION('',(0.0,6.40093989097423E-15,-1.0));
#259=ORIENTED_EDGE('',*,*,#354,.F.);
#260=ORIENTED_EDGE('',*,*,#355,.F.);
#261=ORIENTED_EDGE('',*,*,#356,.F.);
#262=ORIENTED_EDGE('',*,*,#352,.T.);
#263=CARTESIAN_POINT('',(50000.0,-3.29999999999953,1.49999999999957));
#264=DIRECTION('',(-1.0,0.0,0.0));
#265=DIRECTION('',(0.0,-1.0,0.0));
#266=ORIENTED_EDGE('',*,*,#357,.F.);
#267=ORIENTED_EDGE('',*,*,#358,.F.);
#268=ORIENTED_EDGE('',*,*,#359,.F.);
#269=ORIENTED_EDGE('',*,*,#355,.T.);
#270=CARTESIAN_POINT('',(50000.0,1.60000000000011,1.7999999999997));
#271=DIRECTION('',(0.0,-3.10862446895044E-15,1.0));
#272=DIRECTION('',(0.0,-1.0,-3.10862446895044E-15));
#273=ORIENTED_EDGE('',*,*,#360,.F.);
#274=ORIENTED_EDGE('',*,*,#361,.F.);
#275=ORIENTED_EDGE('',*,*,#362,.F.);
#276=ORIENTED_EDGE('',*,*,#358,.T.);
#277=CARTESIAN_POINT('',(50000.0,6.49999999999977,2.59999999999989));
#278=DIRECTION('',(-1.0,0.0,0.0));
#279=DIRECTION('',(0.0,-1.0,0.0));
#280=ORIENTED_EDGE('',*,*,#363,.F.);
#281=ORIENTED_EDGE('',*,*,#364,.F.);
#282=ORIENTED_EDGE('',*,*,#365,.F.);
#283=ORIENTED_EDGE('',*,*,#361,.T.);
#284=CARTESIAN_POINT('',(50000.0,7.3,2.84999999999985));
#285=DIRECTION('',(0.0,-1.0,-1.0842021724855E-14));
#286=DIRECTION('',(0.0,1.0842021724855E-14,-1.0));
#287=ORIENTED_EDGE('',*,*,#366,.F.);
#288=ORIENTED_EDGE('',*,*,#367,.F.);
#289=ORIENTED_EDGE('',*,*,#368,.F.);
#290=ORIENTED_EDGE('',*,*,#364,.T.);
#291=CARTESIAN_POINT('',(50000.0,6.5,3.09999999999983));
#292=DIRECTION('',(-1.0,0.0,0.0));
#293=DIRECTION('',(0.0,-1.0,0.0));
#294=ORIENTED_EDGE('',*,*,#369,.F.);
#295=ORIENTED_EDGE('',*,*,#370,.F.);
#296=ORIENTED_EDGE('',*,*,#371,.F.);
#297=ORIENTED_EDGE('',*,*,#367,.T.);
#298=CARTESIAN_POINT('',(50000.0,1.99493199737333E-14,3.89999999999974));
#299=DIRECTION('',(0.0,1.01047642475649E-15,-1.0));
#300=DIRECTION('',(0.0,1.0,1.01047642475649E-15));
#301=ORIENTED_EDGE('',*,*,#372,.F.);
#302=ORIENTED_EDGE('',*,*,#341,.F.);
#303=ORIENTED_EDGE('',*,*,#373,.F.);
#304=ORIENTED_EDGE('',*,*,#370,.T.);
#305=CARTESIAN_POINT('',(50000.0,-6.5,3.09999999999976));
#306=DIRECTION('',(-1.0,0.0,0.0));
#307=DIRECTION('',(0.0,-1.0,0.0));
#308=ORIENTED_EDGE('',*,*,#373,.T.);
#309=ORIENTED_EDGE('',*,*,#340,.T.);
#310=ORIENTED_EDGE('',*,*,#344,.T.);
#311=ORIENTED_EDGE('',*,*,#347,.T.);
#312=ORIENTED_EDGE('',*,*,#350,.T.);
#313=ORIENTED_EDGE('',*,*,#353,.T.);
#314=ORIENTED_EDGE('',*,*,#356,.T.);
#315=ORIENTED_EDGE('',*,*,#359,.T.);
#316=ORIENTED_EDGE('',*,*,#362,.T.);
#317=ORIENTED_EDGE('',*,*,#365,.T.);
#318=ORIENTED_EDGE('',*,*,#368,.T.);
#319=ORIENTED_EDGE('',*,*,#371,.T.);
#320=CARTESIAN_POINT('',(50.0,-3.59999999999961,1.7999999999996));
#321=DIRECTION('',(1.0,0.0,0.0));
#322=DIRECTION('',(0.0,1.0,0.0));
#323=ORIENTED_EDGE('',*,*,#342,.T.);
#324=ORIENTED_EDGE('',*,*,#338,.T.);
#325=ORIENTED_EDGE('',*,*,#372,.T.);
#326=ORIENTED_EDGE('',*,*,#369,.T.);
#327=ORIENTED_EDGE('',*,*,#366,.T.);
#328=ORIENTED_EDGE('',*,*,#363,.T.);
#329=ORIENTED_EDGE('',*,*,#360,.T.);
#330=ORIENTED_EDGE('',*,*,#357,.T.);
#331=ORIENTED_EDGE('',*,*,#354,.T.);
#332=ORIENTED_EDGE('',*,*,#351,.T.);
#333=ORIENTED_EDGE('',*,*,#348,.T.);
#334=ORIENTED_EDGE('',*,*,#345,.T.);
#335=CARTESIAN_POINT('',(-50.0,-3.59999999999961,1.7999999999996));
#336=DIRECTION('',(-1.0,0.0,0.0));
#337=DIRECTION('',(0.0,1.0,0.0));
#338=EDGE_CURVE('',#374,#375,#376,.T.);
#339=EDGE_CURVE('',#377,#374,#378,.T.);
#340=EDGE_CURVE('',#379,#377,#380,.T.);
#341=EDGE_CURVE('',#379,#375,#381,.T.);
#342=EDGE_CURVE('',#382,#374,#383,.T.);
#343=EDGE_CURVE('',#384,#382,#385,.T.);
#344=EDGE_CURVE('',#377,#384,#386,.T.);
#345=EDGE_CURVE('',#387,#382,#388,.T.);
#346=EDGE_CURVE('',#389,#387,#390,.T.);
#347=EDGE_CURVE('',#384,#389,#391,.T.);
#348=EDGE_CURVE('',#392,#387,#393,.T.);
#349=EDGE_CURVE('',#394,#392,#395,.T.);
#350=EDGE_CURVE('',#389,#394,#396,.T.);
#351=EDGE_CURVE('',#397,#392,#398,.T.);
#352=EDGE_CURVE('',#399,#397,#400,.T.);
#353=EDGE_CURVE('',#394,#399,#401,.T.);
#354=EDGE_CURVE('',#402,#397,#403,.F.);
#355=EDGE_CURVE('',#404,#402,#405,.T.);
#356=EDGE_CURVE('',#399,#404,#406,.F.);
#357=EDGE_CURVE('',#407,#402,#408,.T.);
#358=EDGE_CURVE('',#409,#407,#410,.T.);
#359=EDGE_CURVE('',#404,#409,#411,.T.);
#360=EDGE_CURVE('',#412,#407,#413,.T.);
#361=EDGE_CURVE('',#414,#412,#415,.T.);
#362=EDGE_CURVE('',#409,#414,#416,.T.);
#363=EDGE_CURVE('',#417,#412,#418,.T.);
#364=EDGE_CURVE('',#419,#417,#420,.T.);
#365=EDGE_CURVE('',#414,#419,#421,.T.);
#366=EDGE_CURVE('',#422,#417,#423,.T.);
#367=EDGE_CURVE('',#424,#422,#425,.T.);
#368=EDGE_CURVE('',#419,#424,#426,.T.);
#369=EDGE_CURVE('',#427,#422,#428,.T.);
#370=EDGE_CURVE('',#429,#427,#430,.T.);
#371=EDGE_CURVE('',#424,#429,#431,.T.);
#372=EDGE_CURVE('',#375,#427,#432,.T.);
#373=EDGE_CURVE('',#429,#379,#433,.T.);
#374=VERTEX_POINT('',#434);
#375=VERTEX_POINT('',#435);
#376=LINE('',#436,#437);
#377=VERTEX_POINT('',#438);
#378=LINE('',#439,#440);
#379=VERTEX_POINT('',#441);
#380=LINE('',#442,#443);
#381=LINE('',#444,#445);
#382=VERTEX_POINT('',#446);
#383=CIRCLE('',#447,0.799999999999893);
#384=VERTEX_POINT('',#448);
#385=LINE('',#449,#450);
#386=CIRCLE('',#451,0.799999999999893);
#387=VERTEX_POINT('',#452);
#388=LINE('',#453,#454);
#389=VERTEX_POINT('',#455);
#390=LINE('',#456,#457);
#391=LINE('',#458,#459);
#392=VERTEX_POINT('',#460);
#393=CIRCLE('',#461,0.799999999999901);
#394=VERTEX_POINT('',#462);
#395=LINE('',#463,#464);
#396=CIRCLE('',#465,0.799999999999901);
#397=VERTEX_POINT('',#466);
#398=LINE('',#467,#468);
#399=VERTEX_POINT('',#469);
#400=LINE('',#470,#471);
#401=LINE('',#472,#473);
#402=VERTEX_POINT('',#474);
#403=CIRCLE('',#475,0.300000000000116);
#404=VERTEX_POINT('',#476);
#405=LINE('',#477,#478);
#406=CIRCLE('',#479,0.300000000000116);
#407=VERTEX_POINT('',#480);
#408=LINE('',#481,#482);
#409=VERTEX_POINT('',#483);
#410=LINE('',#484,#485);
#411=LINE('',#486,#487);
#412=VERTEX_POINT('',#488);
#413=CIRCLE('',#489,0.800000000000166);
#414=VERTEX_POINT('',#490);
#415=LINE('',#491,#492);
#416=CIRCLE('',#493,0.800000000000166);
#417=VERTEX_POINT('',#494);
#418=LINE('',#495,#496);
#419=VERTEX_POINT('',#497);
#420=LINE('',#498,#499);
#421=LINE('',#500,#501);
#422=VERTEX_POINT('',#502);
#423=CIRCLE('',#503,0.799999999999915);
#424=VERTEX_POINT('',#504);
#425=LINE('',#505,#506);
#426=CIRCLE('',#507,0.799999999999915);
#427=VERTEX_POINT('',#508);
#428=LINE('',#509,#510);
#429=VERTEX_POINT('',#511);
#430=LINE('',#512,#513);
#431=LINE('',#514,#515);
#432=CIRCLE('',#516,0.799999999999971);
#433=CIRCLE('',#517,0.799999999999971);
#434=CARTESIAN_POINT('',(-49.9999999999972,-7.29999999999992,-3.09999999999985));
#435=CARTESIAN_POINT('',(-49.9999999999972,-7.3,3.09999999999975));
#436=CARTESIAN_POINT('',(-49.9999999999972,-7.3,-4.59701721133854E-14));
#437=VECTOR('',#518,1.0);
#438=CARTESIAN_POINT('',(49.9999999999972,-7.29999999999992,-3.09999999999985));
#439=CARTESIAN_POINT('',(50000.0,-7.29999999999992,-3.09999999999985));
#440=VECTOR('',#519,1.0);
#441=CARTESIAN_POINT('',(49.9999999999972,-7.3,3.09999999999975));
#442=CARTESIAN_POINT('',(49.9999999999972,-7.3,-4.59701721133854E-14));
#443=VECTOR('',#520,1.0);
#444=CARTESIAN_POINT('',(50000.0,-7.3,3.09999999999975));
#445=VECTOR('',#521,1.0);
#446=CARTESIAN_POINT('',(-49.9999999999972,-6.5,-3.89999999999975));
#447=AXIS2_PLACEMENT_3D('',#522,#523,#524);
#448=CARTESIAN_POINT('',(49.9999999999972,-6.5,-3.89999999999975));
#449=CARTESIAN_POINT('',(50000.0,-6.5,-3.89999999999975));
#450=VECTOR('',#525,1.0);
#451=AXIS2_PLACEMENT_3D('',#526,#527,#528);
#452=CARTESIAN_POINT('',(-49.9999999999972,-4.39999999999948,-3.89999999999976));
#453=CARTESIAN_POINT('',(-49.9999999999972,-5.44999999999976,-3.89999999999975));
#454=VECTOR('',#529,1.0);
#455=CARTESIAN_POINT('',(49.9999999999972,-4.39999999999948,-3.89999999999976));
#456=CARTESIAN_POINT('',(50000.0,-4.39999999999948,-3.89999999999976));
#457=VECTOR('',#530,1.0);
#458=CARTESIAN_POINT('',(49.9999999999972,-5.44999999999976,-3.89999999999975));
#459=VECTOR('',#531,1.0);
#460=CARTESIAN_POINT('',(-49.9999999999972,-3.59999999999961,-3.09999999999986));
#461=AXIS2_PLACEMENT_3D('',#532,#533,#534);
#462=CARTESIAN_POINT('',(49.9999999999972,-3.59999999999961,-3.09999999999986));
#463=CARTESIAN_POINT('',(50000.0,-3.59999999999961,-3.09999999999986));
#464=VECTOR('',#535,1.0);
#465=AXIS2_PLACEMENT_3D('',#536,#537,#538);
#466=CARTESIAN_POINT('',(-49.9999999999972,-3.59999999999965,1.49999999999954));
#467=CARTESIAN_POINT('',(-49.9999999999972,-3.59999999999963,-0.800000000000158));
#468=VECTOR('',#539,1.0);
#469=CARTESIAN_POINT('',(49.9999999999972,-3.59999999999965,1.49999999999954));
#470=CARTESIAN_POINT('',(50000.0,-3.59999999999965,1.49999999999954));
#471=VECTOR('',#540,1.0);
#472=CARTESIAN_POINT('',(49.9999999999972,-3.59999999999963,-0.800000000000158));
#473=VECTOR('',#541,1.0);
#474=CARTESIAN_POINT('',(-49.9999999999972,-3.29999999999956,1.79999999999969));
#475=AXIS2_PLACEMENT_3D('',#542,#543,#544);
#476=CARTESIAN_POINT('',(49.9999999999972,-3.29999999999956,1.79999999999969));
#477=CARTESIAN_POINT('',(50000.0,-3.29999999999956,1.79999999999969));
#478=VECTOR('',#545,1.0);
#479=AXIS2_PLACEMENT_3D('',#546,#547,#548);
#480=CARTESIAN_POINT('',(-49.9999999999972,6.49999999999977,1.79999999999972));
#481=CARTESIAN_POINT('',(-49.9999999999972,1.60000000000011,1.7999999999997));
#482=VECTOR('',#549,1.0);
#483=CARTESIAN_POINT('',(49.9999999999972,6.49999999999977,1.79999999999972));
#484=CARTESIAN_POINT('',(50000.0,6.49999999999977,1.79999999999972));
#485=VECTOR('',#550,1.0);
#486=CARTESIAN_POINT('',(49.9999999999972,1.60000000000011,1.7999999999997));
#487=VECTOR('',#551,1.0);
#488=CARTESIAN_POINT('',(-49.9999999999972,7.3,2.59999999999989));
#489=AXIS2_PLACEMENT_3D('',#552,#553,#554);
#490=CARTESIAN_POINT('',(49.9999999999972,7.3,2.59999999999989));
#491=CARTESIAN_POINT('',(50000.0,7.3,2.59999999999989));
#492=VECTOR('',#555,1.0);
#493=AXIS2_PLACEMENT_3D('',#556,#557,#558);
#494=CARTESIAN_POINT('',(-49.9999999999972,7.3,3.09999999999982));
#495=CARTESIAN_POINT('',(-49.9999999999972,7.3,2.84999999999985));
#496=VECTOR('',#559,1.0);
#497=CARTESIAN_POINT('',(49.9999999999972,7.3,3.09999999999982));
#498=CARTESIAN_POINT('',(50000.0,7.3,3.09999999999982));
#499=VECTOR('',#560,1.0);
#500=CARTESIAN_POINT('',(49.9999999999972,7.3,2.84999999999985));
#501=VECTOR('',#561,1.0);
#502=CARTESIAN_POINT('',(-49.9999999999972,6.5,3.89999999999975));
#503=AXIS2_PLACEMENT_3D('',#562,#563,#564);
#504=CARTESIAN_POINT('',(49.9999999999972,6.5,3.89999999999975));
#505=CARTESIAN_POINT('',(50000.0,6.5,3.89999999999975));
#506=VECTOR('',#565,1.0);
#507=AXIS2_PLACEMENT_3D('',#566,#567,#568);
#508=CARTESIAN_POINT('',(-49.9999999999972,-6.5,3.89999999999973));
#509=CARTESIAN_POINT('',(-49.9999999999972,1.99493199737333E-14,3.89999999999974));
#510=VECTOR('',#569,1.0);
#511=CARTESIAN_POINT('',(49.9999999999972,-6.5,3.89999999999973));
#512=CARTESIAN_POINT('',(50000.0,-6.5,3.89999999999973));
#513=VECTOR('',#570,1.0);
#514=CARTESIAN_POINT('',(49.9999999999972,1.99493199737333E-14,3.89999999999974));
#515=VECTOR('',#571,1.0);
#516=AXIS2_PLACEMENT_3D('',#572,#573,#574);
#517=AXIS2_PLACEMENT_3D('',#575,#576,#577);
#518=DIRECTION('',(0.0,-3.39181807640366E-15,1.0));
#519=DIRECTION('',(-1.0,0.0,0.0));
#520=DIRECTION('',(0.0,3.39181807640366E-15,-1.0));
#521=DIRECTION('',(-1.0,0.0,0.0));
#522=CARTESIAN_POINT('',(-49.9999999999972,-6.5,-3.09999999999985));
#523=DIRECTION('',(-1.0,0.0,0.0));
#524=DIRECTION('',(0.0,0.0,1.0));
#525=DIRECTION('',(-1.0,0.0,0.0));
#526=CARTESIAN_POINT('',(49.9999999999972,-6.5,-3.09999999999985));
#527=DIRECTION('',(1.0,0.0,0.0));
#528=DIRECTION('',(0.0,0.0,-1.0));
#529=DIRECTION('',(0.0,-1.0,3.99680288865057E-15));
#530=DIRECTION('',(-1.0,0.0,0.0));
#531=DIRECTION('',(0.0,1.0,-3.99680288865057E-15));
#532=CARTESIAN_POINT('',(-49.9999999999972,-4.39999999999952,-3.09999999999986));
#533=DIRECTION('',(-1.0,0.0,0.0));
#534=DIRECTION('',(0.0,0.0,1.0));
#535=DIRECTION('',(-1.0,0.0,0.0));
#536=CARTESIAN_POINT('',(49.9999999999972,-4.39999999999952,-3.09999999999986));
#537=DIRECTION('',(1.0,0.0,0.0));
#538=DIRECTION('',(0.0,0.0,-1.0));
#539=DIRECTION('',(0.0,6.40093989097423E-15,-1.0));
#540=DIRECTION('',(-1.0,0.0,0.0));
#541=DIRECTION('',(0.0,-6.40093989097423E-15,1.0));
#542=CARTESIAN_POINT('',(-49.9999999999972,-3.29999999999953,1.49999999999957));
#543=DIRECTION('',(-1.0,0.0,0.0));
#544=DIRECTION('',(0.0,0.0,1.0));
#545=DIRECTION('',(-1.0,0.0,0.0));
#546=CARTESIAN_POINT('',(49.9999999999972,-3.29999999999953,1.49999999999957));
#547=DIRECTION('',(1.0,0.0,0.0));
#548=DIRECTION('',(0.0,0.0,-1.0));
#549=DIRECTION('',(0.0,-1.0,-3.10862446895044E-15));
#550=DIRECTION('',(-1.0,0.0,0.0));
#551=DIRECTION('',(0.0,1.0,3.10862446895044E-15));
#552=CARTESIAN_POINT('',(-49.9999999999972,6.49999999999977,2.59999999999989));
#553=DIRECTION('',(-1.0,0.0,0.0));
#554=DIRECTION('',(0.0,0.0,1.0));
#555=DIRECTION('',(-1.0,0.0,0.0));
#556=CARTESIAN_POINT('',(49.9999999999972,6.49999999999977,2.59999999999989));
#557=DIRECTION('',(1.0,0.0,0.0));
#558=DIRECTION('',(0.0,0.0,-1.0));
#559=DIRECTION('',(0.0,1.0842021724855E-14,-1.0));
#560=DIRECTION('',(-1.0,0.0,0.0));
#561=DIRECTION('',(0.0,-1.0842021724855E-14,1.0));
#562=CARTESIAN_POINT('',(-49.9999999999972,6.5,3.09999999999983));
#563=DIRECTION('',(-1.0,0.0,0.0));
#564=DIRECTION('',(0.0,0.0,1.0));
#565=DIRECTION('',(-1.0,0.0,0.0));
#566=CARTESIAN_POINT('',(49.9999999999972,6.5,3.09999999999983));
#567=DIRECTION('',(1.0,0.0,0.0));
#568=DIRECTION('',(0.0,0.0,-1.0));
#569=DIRECTION('',(0.0,1.0,1.01047642475649E-15));
#570=DIRECTION('',(-1.0,0.0,0.0));
#571=DIRECTION('',(0.0,-1.0,-1.01047642475649E-15));
#572=CARTESIAN_POINT('',(-49.9999999999972,-6.5,3.09999999999976));
#573=DIRECTION('',(-1.0,0.0,0.0));
#574=DIRECTION('',(0.0,0.0,1.0));
#575=CARTESIAN_POINT('',(49.9999999999972,-6.5,3.09999999999976));
#576=DIRECTION('',(1.0,0.0,0.0));
#577=DIRECTION('',(0.0,0.0,-1.0));
ENDSEC;
END-ISO-10303-21;
