ISO-10303-21;
HEADER;
FILE_DESCRIPTION(('STEP AP203'),'1');
FILE_NAME('SAFE08N1086.stp','2023-10-23T14:44:37',(' '),(' '),'Spatial InterOp 3D',' ',' ');
FILE_SCHEMA(('CONFIG_CONTROL_DESIGN'));
ENDSEC;
DATA;
#1=DESIGN_CONTEXT('',#51,'design');
#2=APPLICATION_PROTOCOL_DEFINITION('INTERNATIONAL STANDARD','config_control_design',1994,#51);
#3=PRODUCT_CATEGORY_RELATIONSHIP('NONE','NONE',#52,#53);
#4=DATE_AND_TIME(#54,#55);
#5=DATE_TIME_ROLE('creation_date');
#6=DATE_TIME_ROLE('classification_date');
#7=PERSON_AND_ORGANIZATION_ROLE('creator');
#8=PERSON_AND_ORGANIZATION_ROLE('design_supplier');
#9=PERSON_AND_ORGANIZATION_ROLE('classification_officer');
#10=PERSON_AND_ORGANIZATION_ROLE('design_owner');
#11=APPROVAL_PERSON_ORGANIZATION(#56,#57,#58);
#12=APPROVAL_DATE_TIME(#4,#57);
#13=CC_DESIGN_APPROVAL(#57,(#59,#60,#61));
#14=CC_DESIGN_DATE_AND_TIME_ASSIGNMENT(#4,#5,(#61));
#15=CC_DESIGN_DATE_AND_TIME_ASSIGNMENT(#4,#6,(#59));
#16=CC_DESIGN_PERSON_AND_ORGANIZATION_ASSIGNMENT(#56,#10,(#62));
#17=CC_DESIGN_PERSON_AND_ORGANIZATION_ASSIGNMENT(#56,#7,(#61));
#18=CC_DESIGN_PERSON_AND_ORGANIZATION_ASSIGNMENT(#56,#7,(#60));
#19=CC_DESIGN_PERSON_AND_ORGANIZATION_ASSIGNMENT(#56,#8,(#60));
#20=CC_DESIGN_SECURITY_CLASSIFICATION(#59,(#60));
#21=CC_DESIGN_PERSON_AND_ORGANIZATION_ASSIGNMENT(#56,#9,(#59));
#22=SHAPE_DEFINITION_REPRESENTATION(#63,#64);
#23= (GEOMETRIC_REPRESENTATION_CONTEXT(3)GLOBAL_UNCERTAINTY_ASSIGNED_CONTEXT((#67))GLOBAL_UNIT_ASSIGNED_CONTEXT((#69,#70,#71))REPRESENTATION_CONTEXT('NONE','WORKSPACE'));
#24=PROPERTY_DEFINITION_REPRESENTATION(#73,#74);
#25=GENERAL_PROPERTY_ASSOCIATION('','',#75,#73);
#26=PROPERTY_DEFINITION_REPRESENTATION(#76,#77);
#27=GENERAL_PROPERTY_ASSOCIATION('','',#78,#76);
#28=PROPERTY_DEFINITION_REPRESENTATION(#79,#80);
#29=GENERAL_PROPERTY_ASSOCIATION('','',#81,#79);
#30=PROPERTY_DEFINITION_REPRESENTATION(#82,#83);
#31=GENERAL_PROPERTY_ASSOCIATION('','',#84,#82);
#32=PROPERTY_DEFINITION_REPRESENTATION(#85,#86);
#33=GENERAL_PROPERTY_ASSOCIATION('','',#87,#85);
#34=PROPERTY_DEFINITION_REPRESENTATION(#88,#89);
#35=GENERAL_PROPERTY_ASSOCIATION('','',#90,#88);
#36=PROPERTY_DEFINITION_REPRESENTATION(#91,#92);
#37=GENERAL_PROPERTY_ASSOCIATION('','',#93,#91);
#38=PROPERTY_DEFINITION_REPRESENTATION(#94,#95);
#39=GENERAL_PROPERTY_ASSOCIATION('','',#96,#94);
#40=PROPERTY_DEFINITION_REPRESENTATION(#97,#98);
#41=GENERAL_PROPERTY_ASSOCIATION('','',#99,#97);
#42=PROPERTY_DEFINITION_REPRESENTATION(#100,#101);
#43=GENERAL_PROPERTY_ASSOCIATION('','',#102,#100);
#44=PROPERTY_DEFINITION_REPRESENTATION(#103,#104);
#45=GENERAL_PROPERTY_ASSOCIATION('','',#105,#103);
#46=PROPERTY_DEFINITION_REPRESENTATION(#106,#107);
#47=GENERAL_PROPERTY_ASSOCIATION('','',#108,#106);
#51=APPLICATION_CONTEXT('CONFIGURATION CONTROLLED 3D DESIGNS OF MECHANICAL PARTS AND ASSEMBLIES');
#52=PRODUCT_CATEGORY('part','NONE');
#53=PRODUCT_RELATED_PRODUCT_CATEGORY('detail',' ',(#62));
#54=CALENDAR_DATE(2023,23,9);
#55=LOCAL_TIME(16,44,37.0,#109);
#56=PERSON_AND_ORGANIZATION(#110,#111);
#57=APPROVAL(#112,'SOLID MODEL');
#58=APPROVAL_ROLE('APPROVED');
#59=SECURITY_CLASSIFICATION('','',#113);
#60=PRODUCT_DEFINITION_FORMATION_WITH_SPECIFIED_SOURCE('A','NONE',#62,.NOT_KNOWN.);
#61=PRODUCT_DEFINITION('','NONE',#60,#1);
#62=PRODUCT('Joint de panneau 8 2-4 mm nitrile','%#@![$ComplementaryPartNumber=SAFE08N1086]','Joint de panneau 8 2-4 mm nitrile',(#114));
#63=PRODUCT_DEFINITION_SHAPE('NONE','NONE',#61);
#64=ADVANCED_BREP_SHAPE_REPRESENTATION('1',(#115,#116),#23);
#67=UNCERTAINTY_MEASURE_WITH_UNIT(LENGTH_MEASURE(0.001),#69,'','');
#69= (CONVERSION_BASED_UNIT('MILLIMETRE',#119)LENGTH_UNIT()NAMED_UNIT(#122));
#70= (NAMED_UNIT(#124)PLANE_ANGLE_UNIT()SI_UNIT($,.RADIAN.));
#71= (NAMED_UNIT(#124)SOLID_ANGLE_UNIT()SI_UNIT($,.STERADIAN.));
#73=PROPERTY_DEFINITION('PdmObjectId','',#61);
#74=REPRESENTATION('',(#130),#23);
#75=GENERAL_PROPERTY('','19_11fe0f7c-4cfb-45aa-be85-f880201cdf3b&5_228_17_15','');
#76=PROPERTY_DEFINITION('CATALOGUE_ID','',#61);
#77=REPRESENTATION('',(#131),#23);
#78=GENERAL_PROPERTY('','1086','');
#79=PROPERTY_DEFINITION('CATALOGUE_PREFIXE','',#61);
#80=REPRESENTATION('',(#132),#23);
#81=GENERAL_PROPERTY('','SAFE','');
#82=PROPERTY_DEFINITION('CATALOGUE_LIGNE','',#61);
#83=REPRESENTATION('',(#133),#23);
#84=GENERAL_PROPERTY('','08','');
#85=PROPERTY_DEFINITION('CATALOGUE_LETTRE','',#61);
#86=REPRESENTATION('',(#134),#23);
#87=GENERAL_PROPERTY('','N','');
#88=PROPERTY_DEFINITION('Type de production hellomoov','',#61);
#89=REPRESENTATION('',(#135),#23);
#90=GENERAL_PROPERTY('','pi\X2\00E8\X0\ce du stock','');
#91=PROPERTY_DEFINITION('D\X2\00E9\X0\signation du mat\X2\00E9\X0\riau','',#61);
#92=REPRESENTATION('',(#136),#23);
#93=GENERAL_PROPERTY('','Polystyr\X2\00E8\X0\ne Acrylonitrile','');
#94=PROPERTY_DEFINITION('Nom du mat\X2\00E9\X0\riau','',#61);
#95=REPRESENTATION('',(#137),#23);
#96=GENERAL_PROPERTY('','Polystyr\X2\00E8\X0\ne Acrylonitrile','');
#97=PROPERTY_DEFINITION('Manufacturer','',#61);
#98=REPRESENTATION('',(#138),#23);
#99=GENERAL_PROPERTY('','HELLOMOOV','');
#100=PROPERTY_DEFINITION('CreationDate','',#61);
#101=REPRESENTATION('',(#139),#23);
#102=GENERAL_PROPERTY('','23/10/2023 14:41:20','');
#103=PROPERTY_DEFINITION('Minor Revision','',#61);
#104=REPRESENTATION('',(#140),#23);
#105=GENERAL_PROPERTY('','0','');
#106=PROPERTY_DEFINITION('Complementary Part Number','',#61);
#107=REPRESENTATION('',(#141),#23);
#108=GENERAL_PROPERTY('','%#@![CATALOGUE_PREFIXE=SAFE][CATALOGUE_LIGNE=08][CATALOGUE_LETTRE=N][CATALOGUE_ID=1086]','');
#109=COORDINATED_UNIVERSAL_TIME_OFFSET(1,0,.AHEAD.);
#110=PERSON('','UNSPECIFIED',$,$,$,$);
#111=ORGANIZATION('UNSPECIFIED','UNSPECIFIED','UNSPECIFIED');
#112=APPROVAL_STATUS('approved');
#113=SECURITY_CLASSIFICATION_LEVEL('unclassified');
#114=MECHANICAL_CONTEXT('',#51,'mechanical');
#115=MANIFOLD_SOLID_BREP('1',#142);
#116=AXIS2_PLACEMENT_3D('',#143,#144,#145);
#119=LENGTH_MEASURE_WITH_UNIT(LENGTH_MEASURE(1.0),#146);
#122=DIMENSIONAL_EXPONENTS(1.0,0.0,0.0,0.0,0.0,0.0,0.0);
#124=DIMENSIONAL_EXPONENTS(0.0,0.0,0.0,0.0,0.0,0.0,0.0);
#130=DESCRIPTIVE_REPRESENTATION_ITEM('','19_11fe0f7c-4cfb-45aa-be85-f880201cdf3b&5_228_17_15');
#131=DESCRIPTIVE_REPRESENTATION_ITEM('','1086');
#132=DESCRIPTIVE_REPRESENTATION_ITEM('','SAFE');
#133=DESCRIPTIVE_REPRESENTATION_ITEM('','08');
#134=DESCRIPTIVE_REPRESENTATION_ITEM('','N');
#135=DESCRIPTIVE_REPRESENTATION_ITEM('','pi\X2\00E8\X0\ce du stock');
#136=DESCRIPTIVE_REPRESENTATION_ITEM('','Polystyr\X2\00E8\X0\ne Acrylonitrile');
#137=DESCRIPTIVE_REPRESENTATION_ITEM('','Polystyr\X2\00E8\X0\ne Acrylonitrile');
#138=DESCRIPTIVE_REPRESENTATION_ITEM('','HELLOMOOV');
#139=DESCRIPTIVE_REPRESENTATION_ITEM('','23/10/2023 14:41:20');
#140=DESCRIPTIVE_REPRESENTATION_ITEM('','0');
#141=DESCRIPTIVE_REPRESENTATION_ITEM('','%#@![CATALOGUE_PREFIXE=SAFE][CATALOGUE_LIGNE=08][CATALOGUE_LETTRE=N][CATALOGUE_ID=1086]');
#142=CLOSED_SHELL('',(#147,#148,#149,#150,#151,#152,#153,#154,#155,#156,#157,#158,#159,#160,#161));
#143=CARTESIAN_POINT('',(0.0,0.0,0.0));
#144=DIRECTION('',(0.0,0.0,1.0));
#145=DIRECTION('',(1.0,0.0,0.0));
#146= (NAMED_UNIT(#122)LENGTH_UNIT()SI_UNIT(.MILLI.,.METRE.));
#147=ADVANCED_FACE('',(#163),#164,.F.);
#148=ADVANCED_FACE('',(#165),#166,.F.);
#149=ADVANCED_FACE('',(#167),#168,.T.);
#150=ADVANCED_FACE('',(#169),#170,.T.);
#151=ADVANCED_FACE('',(#171),#172,.F.);
#152=ADVANCED_FACE('',(#173),#174,.T.);
#153=ADVANCED_FACE('',(#175),#176,.F.);
#154=ADVANCED_FACE('',(#177),#178,.F.);
#155=ADVANCED_FACE('',(#179),#180,.F.);
#156=ADVANCED_FACE('',(#181),#182,.F.);
#157=ADVANCED_FACE('',(#183),#184,.T.);
#158=ADVANCED_FACE('',(#185),#186,.F.);
#159=ADVANCED_FACE('',(#187),#188,.T.);
#160=ADVANCED_FACE('',(#189),#190,.F.);
#161=ADVANCED_FACE('',(#191),#192,.T.);
#163=FACE_OUTER_BOUND('',#193,.T.);
#164=PLANE('',#194);
#165=FACE_OUTER_BOUND('',#195,.T.);
#166=PLANE('',#196);
#167=FACE_OUTER_BOUND('',#197,.T.);
#168=CYLINDRICAL_SURFACE('',#198,0.99999999999998);
#169=FACE_OUTER_BOUND('',#199,.T.);
#170=CYLINDRICAL_SURFACE('',#200,0.999999999999942);
#171=FACE_OUTER_BOUND('',#201,.T.);
#172=PLANE('',#202);
#173=FACE_OUTER_BOUND('',#203,.T.);
#174=CYLINDRICAL_SURFACE('',#204,0.300000000000059);
#175=FACE_OUTER_BOUND('',#205,.T.);
#176=CYLINDRICAL_SURFACE('',#206,0.999999999999907);
#177=FACE_OUTER_BOUND('',#207,.T.);
#178=PLANE('',#208);
#179=FACE_OUTER_BOUND('',#209,.T.);
#180=CYLINDRICAL_SURFACE('',#210,0.99999999999998);
#181=FACE_OUTER_BOUND('',#211,.T.);
#182=PLANE('',#212);
#183=FACE_OUTER_BOUND('',#213,.T.);
#184=CYLINDRICAL_SURFACE('',#214,1.0);
#185=FACE_OUTER_BOUND('',#215,.T.);
#186=PLANE('',#216);
#187=FACE_OUTER_BOUND('',#217,.T.);
#188=CYLINDRICAL_SURFACE('',#218,1.0);
#189=FACE_OUTER_BOUND('',#219,.T.);
#190=PLANE('',#220);
#191=FACE_OUTER_BOUND('',#221,.T.);
#192=PLANE('',#222);
#193=EDGE_LOOP('',(#223,#224,#225,#226));
#194=AXIS2_PLACEMENT_3D('',#227,#228,#229);
#195=EDGE_LOOP('',(#230,#231,#232,#233,#234,#235,#236,#237,#238,#239,#240,#241,#242));
#196=AXIS2_PLACEMENT_3D('',#243,#244,#245);
#197=EDGE_LOOP('',(#246,#247,#248,#249));
#198=AXIS2_PLACEMENT_3D('',#250,#251,#252);
#199=EDGE_LOOP('',(#253,#254,#255,#256));
#200=AXIS2_PLACEMENT_3D('',#257,#258,#259);
#201=EDGE_LOOP('',(#260,#261,#262,#263));
#202=AXIS2_PLACEMENT_3D('',#264,#265,#266);
#203=EDGE_LOOP('',(#267,#268,#269,#270));
#204=AXIS2_PLACEMENT_3D('',#271,#272,#273);
#205=EDGE_LOOP('',(#274,#275,#276,#277));
#206=AXIS2_PLACEMENT_3D('',#278,#279,#280);
#207=EDGE_LOOP('',(#281,#282,#283,#284));
#208=AXIS2_PLACEMENT_3D('',#285,#286,#287);
#209=EDGE_LOOP('',(#288,#289,#290,#291));
#210=AXIS2_PLACEMENT_3D('',#292,#293,#294);
#211=EDGE_LOOP('',(#295,#296,#297,#298));
#212=AXIS2_PLACEMENT_3D('',#299,#300,#301);
#213=EDGE_LOOP('',(#302,#303,#304,#305));
#214=AXIS2_PLACEMENT_3D('',#306,#307,#308);
#215=EDGE_LOOP('',(#309,#310,#311,#312));
#216=AXIS2_PLACEMENT_3D('',#313,#314,#315);
#217=EDGE_LOOP('',(#316,#317,#318,#319));
#218=AXIS2_PLACEMENT_3D('',#320,#321,#322);
#219=EDGE_LOOP('',(#323,#324,#325,#326));
#220=AXIS2_PLACEMENT_3D('',#327,#328,#329);
#221=EDGE_LOOP('',(#330,#331,#332,#333,#334,#335,#336,#337,#338,#339,#340,#341,#342));
#222=AXIS2_PLACEMENT_3D('',#343,#344,#345);
#223=ORIENTED_EDGE('',*,*,#346,.T.);
#224=ORIENTED_EDGE('',*,*,#347,.F.);
#225=ORIENTED_EDGE('',*,*,#348,.F.);
#226=ORIENTED_EDGE('',*,*,#349,.T.);
#227=CARTESIAN_POINT('',(2.25000000000003,-4.14600547472986,25.0));
#228=DIRECTION('',(3.46944695195355E-15,1.0,0.0));
#229=DIRECTION('',(-1.0,3.46944695195355E-15,0.0));
#230=ORIENTED_EDGE('',*,*,#350,.T.);
#231=ORIENTED_EDGE('',*,*,#351,.T.);
#232=ORIENTED_EDGE('',*,*,#352,.T.);
#233=ORIENTED_EDGE('',*,*,#353,.T.);
#234=ORIENTED_EDGE('',*,*,#354,.T.);
#235=ORIENTED_EDGE('',*,*,#355,.T.);
#236=ORIENTED_EDGE('',*,*,#356,.T.);
#237=ORIENTED_EDGE('',*,*,#357,.T.);
#238=ORIENTED_EDGE('',*,*,#358,.T.);
#239=ORIENTED_EDGE('',*,*,#359,.T.);
#240=ORIENTED_EDGE('',*,*,#360,.T.);
#241=ORIENTED_EDGE('',*,*,#361,.T.);
#242=ORIENTED_EDGE('',*,*,#348,.T.);
#243=CARTESIAN_POINT('',(2.25000000000005,-3.14600547472991,25.0));
#244=DIRECTION('',(0.0,0.0,-1.0));
#245=DIRECTION('',(-1.0,0.0,0.0));
#246=ORIENTED_EDGE('',*,*,#362,.T.);
#247=ORIENTED_EDGE('',*,*,#349,.F.);
#248=ORIENTED_EDGE('',*,*,#361,.F.);
#249=ORIENTED_EDGE('',*,*,#363,.T.);
#250=CARTESIAN_POINT('',(-1.25000000000004,-3.14600547472986,25.0));
#251=DIRECTION('',(0.0,0.0,-1.0));
#252=DIRECTION('',(-1.0,0.0,0.0));
#253=ORIENTED_EDGE('',*,*,#364,.T.);
#254=ORIENTED_EDGE('',*,*,#365,.F.);
#255=ORIENTED_EDGE('',*,*,#350,.F.);
#256=ORIENTED_EDGE('',*,*,#347,.T.);
#257=CARTESIAN_POINT('',(2.25000000000005,-3.14600547472991,25.0));
#258=DIRECTION('',(0.0,0.0,-1.0));
#259=DIRECTION('',(-1.0,0.0,0.0));
#260=ORIENTED_EDGE('',*,*,#366,.T.);
#261=ORIENTED_EDGE('',*,*,#367,.F.);
#262=ORIENTED_EDGE('',*,*,#351,.F.);
#263=ORIENTED_EDGE('',*,*,#365,.T.);
#264=CARTESIAN_POINT('',(3.25,-2.44600547472985,25.0));
#265=DIRECTION('',(-1.0,0.0,0.0));
#266=DIRECTION('',(0.0,0.0,1.0));
#267=ORIENTED_EDGE('',*,*,#368,.T.);
#268=ORIENTED_EDGE('',*,*,#369,.F.);
#269=ORIENTED_EDGE('',*,*,#352,.F.);
#270=ORIENTED_EDGE('',*,*,#367,.T.);
#271=CARTESIAN_POINT('',(2.94999999999994,-2.44600547472989,25.0));
#272=DIRECTION('',(0.0,0.0,-1.0));
#273=DIRECTION('',(-1.0,0.0,0.0));
#274=ORIENTED_EDGE('',*,*,#370,.T.);
#275=ORIENTED_EDGE('',*,*,#371,.F.);
#276=ORIENTED_EDGE('',*,*,#353,.F.);
#277=ORIENTED_EDGE('',*,*,#369,.T.);
#278=CARTESIAN_POINT('',(3.24999999999992,-1.18109441066255,25.0));
#279=DIRECTION('',(0.0,0.0,-1.0));
#280=DIRECTION('',(-1.0,0.0,0.0));
#281=ORIENTED_EDGE('',*,*,#372,.T.);
#282=ORIENTED_EDGE('',*,*,#373,.F.);
#283=ORIENTED_EDGE('',*,*,#354,.F.);
#284=ORIENTED_EDGE('',*,*,#371,.T.);
#285=CARTESIAN_POINT('',(2.25,1.18109441066252,25.0));
#286=DIRECTION('',(-1.0,0.0,0.0));
#287=DIRECTION('',(0.0,0.0,1.0));
#288=ORIENTED_EDGE('',*,*,#374,.T.);
#289=ORIENTED_EDGE('',*,*,#375,.F.);
#290=ORIENTED_EDGE('',*,*,#355,.F.);
#291=ORIENTED_EDGE('',*,*,#373,.T.);
#292=CARTESIAN_POINT('',(3.25,1.18109441066253,25.0));
#293=DIRECTION('',(0.0,0.0,-1.0));
#294=DIRECTION('',(-1.0,0.0,0.0));
#295=ORIENTED_EDGE('',*,*,#376,.T.);
#296=ORIENTED_EDGE('',*,*,#377,.F.);
#297=ORIENTED_EDGE('',*,*,#356,.F.);
#298=ORIENTED_EDGE('',*,*,#375,.T.);
#299=CARTESIAN_POINT('',(4.46385967464597,1.63497273912648,25.0));
#300=DIRECTION('',(0.499999999999999,0.866025403784439,0.0));
#301=DIRECTION('',(-0.866025403784439,0.499999999999999,0.0));
#302=ORIENTED_EDGE('',*,*,#378,.T.);
#303=ORIENTED_EDGE('',*,*,#379,.F.);
#304=ORIENTED_EDGE('',*,*,#357,.F.);
#305=ORIENTED_EDGE('',*,*,#377,.T.);
#306=CARTESIAN_POINT('',(4.96385967464597,2.50099814291091,25.0));
#307=DIRECTION('',(0.0,0.0,-1.0));
#308=DIRECTION('',(-1.0,0.0,0.0));
#309=ORIENTED_EDGE('',*,*,#380,.T.);
#310=ORIENTED_EDGE('',*,*,#381,.F.);
#311=ORIENTED_EDGE('',*,*,#358,.F.);
#312=ORIENTED_EDGE('',*,*,#379,.T.);
#313=CARTESIAN_POINT('',(-0.391146016002392,13.4321655611513,25.0));
#314=DIRECTION('',(-0.858853983997622,-0.512220493705018,0.0));
#315=DIRECTION('',(0.512220493705018,-0.858853983997622,0.0));
#316=ORIENTED_EDGE('',*,*,#382,.T.);
#317=ORIENTED_EDGE('',*,*,#383,.F.);
#318=ORIENTED_EDGE('',*,*,#359,.F.);
#319=ORIENTED_EDGE('',*,*,#381,.T.);
#320=CARTESIAN_POINT('',(-1.25,12.9199450674462,25.0));
#321=DIRECTION('',(0.0,0.0,-1.0));
#322=DIRECTION('',(-1.0,0.0,0.0));
#323=ORIENTED_EDGE('',*,*,#384,.T.);
#324=ORIENTED_EDGE('',*,*,#363,.F.);
#325=ORIENTED_EDGE('',*,*,#360,.F.);
#326=ORIENTED_EDGE('',*,*,#383,.T.);
#327=CARTESIAN_POINT('',(-2.25,-3.14600547472985,25.0));
#328=DIRECTION('',(1.0,0.0,0.0));
#329=DIRECTION('',(0.0,0.0,-1.0));
#330=ORIENTED_EDGE('',*,*,#364,.F.);
#331=ORIENTED_EDGE('',*,*,#346,.F.);
#332=ORIENTED_EDGE('',*,*,#362,.F.);
#333=ORIENTED_EDGE('',*,*,#384,.F.);
#334=ORIENTED_EDGE('',*,*,#382,.F.);
#335=ORIENTED_EDGE('',*,*,#380,.F.);
#336=ORIENTED_EDGE('',*,*,#378,.F.);
#337=ORIENTED_EDGE('',*,*,#376,.F.);
#338=ORIENTED_EDGE('',*,*,#374,.F.);
#339=ORIENTED_EDGE('',*,*,#372,.F.);
#340=ORIENTED_EDGE('',*,*,#370,.F.);
#341=ORIENTED_EDGE('',*,*,#368,.F.);
#342=ORIENTED_EDGE('',*,*,#366,.F.);
#343=CARTESIAN_POINT('',(2.25000000000005,-3.14600547472991,-25.0));
#344=DIRECTION('',(0.0,0.0,-1.0));
#345=DIRECTION('',(-1.0,0.0,0.0));
#346=EDGE_CURVE('',#385,#386,#387,.T.);
#347=EDGE_CURVE('',#388,#386,#389,.T.);
#348=EDGE_CURVE('',#390,#388,#391,.T.);
#349=EDGE_CURVE('',#390,#385,#392,.T.);
#350=EDGE_CURVE('',#388,#393,#394,.T.);
#351=EDGE_CURVE('',#393,#395,#396,.T.);
#352=EDGE_CURVE('',#395,#397,#398,.T.);
#353=EDGE_CURVE('',#397,#399,#400,.T.);
#354=EDGE_CURVE('',#399,#401,#402,.T.);
#355=EDGE_CURVE('',#401,#403,#404,.T.);
#356=EDGE_CURVE('',#403,#405,#406,.T.);
#357=EDGE_CURVE('',#405,#407,#408,.T.);
#358=EDGE_CURVE('',#407,#409,#410,.T.);
#359=EDGE_CURVE('',#409,#411,#412,.T.);
#360=EDGE_CURVE('',#411,#413,#414,.T.);
#361=EDGE_CURVE('',#413,#390,#415,.T.);
#362=EDGE_CURVE('',#416,#385,#417,.T.);
#363=EDGE_CURVE('',#413,#416,#418,.T.);
#364=EDGE_CURVE('',#386,#419,#420,.T.);
#365=EDGE_CURVE('',#393,#419,#421,.T.);
#366=EDGE_CURVE('',#419,#422,#423,.T.);
#367=EDGE_CURVE('',#395,#422,#424,.T.);
#368=EDGE_CURVE('',#422,#425,#426,.T.);
#369=EDGE_CURVE('',#397,#425,#427,.T.);
#370=EDGE_CURVE('',#425,#428,#429,.T.);
#371=EDGE_CURVE('',#399,#428,#430,.T.);
#372=EDGE_CURVE('',#428,#431,#432,.T.);
#373=EDGE_CURVE('',#401,#431,#433,.T.);
#374=EDGE_CURVE('',#431,#434,#435,.T.);
#375=EDGE_CURVE('',#403,#434,#436,.T.);
#376=EDGE_CURVE('',#434,#437,#438,.T.);
#377=EDGE_CURVE('',#405,#437,#439,.T.);
#378=EDGE_CURVE('',#437,#440,#441,.T.);
#379=EDGE_CURVE('',#407,#440,#442,.T.);
#380=EDGE_CURVE('',#440,#443,#444,.T.);
#381=EDGE_CURVE('',#409,#443,#445,.T.);
#382=EDGE_CURVE('',#443,#446,#447,.T.);
#383=EDGE_CURVE('',#411,#446,#448,.T.);
#384=EDGE_CURVE('',#446,#416,#449,.T.);
#385=VERTEX_POINT('',#450);
#386=VERTEX_POINT('',#451);
#387=LINE('',#452,#453);
#388=VERTEX_POINT('',#454);
#389=LINE('',#455,#456);
#390=VERTEX_POINT('',#457);
#391=LINE('',#458,#459);
#392=LINE('',#460,#461);
#393=VERTEX_POINT('',#462);
#394=CIRCLE('',#463,0.999999999999942);
#395=VERTEX_POINT('',#464);
#396=LINE('',#465,#466);
#397=VERTEX_POINT('',#467);
#398=CIRCLE('',#468,0.300000000000059);
#399=VERTEX_POINT('',#469);
#400=CIRCLE('',#470,0.999999999999907);
#401=VERTEX_POINT('',#471);
#402=LINE('',#472,#473);
#403=VERTEX_POINT('',#474);
#404=CIRCLE('',#475,0.99999999999998);
#405=VERTEX_POINT('',#476);
#406=LINE('',#477,#478);
#407=VERTEX_POINT('',#479);
#408=CIRCLE('',#480,1.0);
#409=VERTEX_POINT('',#481);
#410=LINE('',#482,#483);
#411=VERTEX_POINT('',#484);
#412=CIRCLE('',#485,1.0);
#413=VERTEX_POINT('',#486);
#414=LINE('',#487,#488);
#415=CIRCLE('',#489,0.99999999999998);
#416=VERTEX_POINT('',#490);
#417=CIRCLE('',#491,0.99999999999998);
#418=LINE('',#492,#493);
#419=VERTEX_POINT('',#494);
#420=CIRCLE('',#495,0.999999999999942);
#421=LINE('',#496,#497);
#422=VERTEX_POINT('',#498);
#423=LINE('',#499,#500);
#424=LINE('',#501,#502);
#425=VERTEX_POINT('',#503);
#426=CIRCLE('',#504,0.300000000000059);
#427=LINE('',#505,#506);
#428=VERTEX_POINT('',#507);
#429=CIRCLE('',#508,0.999999999999907);
#430=LINE('',#509,#510);
#431=VERTEX_POINT('',#511);
#432=LINE('',#512,#513);
#433=LINE('',#514,#515);
#434=VERTEX_POINT('',#516);
#435=CIRCLE('',#517,0.99999999999998);
#436=LINE('',#518,#519);
#437=VERTEX_POINT('',#520);
#438=LINE('',#521,#522);
#439=LINE('',#523,#524);
#440=VERTEX_POINT('',#525);
#441=CIRCLE('',#526,1.0);
#442=LINE('',#527,#528);
#443=VERTEX_POINT('',#529);
#444=LINE('',#530,#531);
#445=LINE('',#532,#533);
#446=VERTEX_POINT('',#534);
#447=CIRCLE('',#535,1.0);
#448=LINE('',#536,#537);
#449=LINE('',#538,#539);
#450=CARTESIAN_POINT('',(-1.25000000000004,-4.14600547472984,-25.0));
#451=CARTESIAN_POINT('',(2.25000000000003,-4.14600547472986,-25.0));
#452=CARTESIAN_POINT('',(2.25000000000003,-4.14600547472986,-25.0));
#453=VECTOR('',#540,1.0);
#454=CARTESIAN_POINT('',(2.25000000000003,-4.14600547472986,25.0));
#455=CARTESIAN_POINT('',(2.25000000000003,-4.14600547472986,25.0));
#456=VECTOR('',#541,1.0);
#457=CARTESIAN_POINT('',(-1.25000000000004,-4.14600547472984,25.0));
#458=CARTESIAN_POINT('',(2.25000000000003,-4.14600547472986,25.0));
#459=VECTOR('',#542,1.0);
#460=CARTESIAN_POINT('',(-1.25000000000004,-4.14600547472984,25.0));
#461=VECTOR('',#543,1.0);
#462=CARTESIAN_POINT('',(3.25,-3.14600547472988,25.0));
#463=AXIS2_PLACEMENT_3D('',#544,#545,#546);
#464=CARTESIAN_POINT('',(3.25,-2.44600547472985,25.0));
#465=CARTESIAN_POINT('',(3.25,-2.44600547472985,25.0));
#466=VECTOR('',#547,1.0);
#467=CARTESIAN_POINT('',(3.01923076923073,-2.15410292148352,25.0));
#468=AXIS2_PLACEMENT_3D('',#548,#549,#550);
#469=CARTESIAN_POINT('',(2.25,-1.18109441066253,25.0));
#470=AXIS2_PLACEMENT_3D('',#551,#552,#553);
#471=CARTESIAN_POINT('',(2.25,1.18109441066252,25.0));
#472=CARTESIAN_POINT('',(2.25,1.18109441066252,25.0));
#473=VECTOR('',#554,1.0);
#474=CARTESIAN_POINT('',(3.75,2.04711981444695,25.0));
#475=AXIS2_PLACEMENT_3D('',#555,#556,#557);
#476=CARTESIAN_POINT('',(4.46385967464597,1.63497273912648,25.0));
#477=CARTESIAN_POINT('',(4.46385967464597,1.63497273912648,25.0));
#478=VECTOR('',#558,1.0);
#479=CARTESIAN_POINT('',(5.82271365864359,3.01321863661593,25.0));
#480=AXIS2_PLACEMENT_3D('',#559,#560,#561);
#481=CARTESIAN_POINT('',(-0.391146016002392,13.4321655611513,25.0));
#482=CARTESIAN_POINT('',(-0.391146016002392,13.4321655611513,25.0));
#483=VECTOR('',#562,1.0);
#484=CARTESIAN_POINT('',(-2.25,12.9199450674462,25.0));
#485=AXIS2_PLACEMENT_3D('',#563,#564,#565);
#486=CARTESIAN_POINT('',(-2.25,-3.14600547472985,25.0));
#487=CARTESIAN_POINT('',(-2.25,-3.14600547472985,25.0));
#488=VECTOR('',#566,1.0);
#489=AXIS2_PLACEMENT_3D('',#567,#568,#569);
#490=CARTESIAN_POINT('',(-2.25,-3.14600547472985,-25.0));
#491=AXIS2_PLACEMENT_3D('',#570,#571,#572);
#492=CARTESIAN_POINT('',(-2.25,-3.14600547472985,25.0));
#493=VECTOR('',#573,1.0);
#494=CARTESIAN_POINT('',(3.25,-3.14600547472988,-25.0));
#495=AXIS2_PLACEMENT_3D('',#574,#575,#576);
#496=CARTESIAN_POINT('',(3.25,-3.14600547472988,25.0));
#497=VECTOR('',#577,1.0);
#498=CARTESIAN_POINT('',(3.25,-2.44600547472985,-25.0));
#499=CARTESIAN_POINT('',(3.25,-2.44600547472985,-25.0));
#500=VECTOR('',#578,1.0);
#501=CARTESIAN_POINT('',(3.25,-2.44600547472985,25.0));
#502=VECTOR('',#579,1.0);
#503=CARTESIAN_POINT('',(3.01923076923073,-2.15410292148352,-25.0));
#504=AXIS2_PLACEMENT_3D('',#580,#581,#582);
#505=CARTESIAN_POINT('',(3.01923076923073,-2.15410292148352,25.0));
#506=VECTOR('',#583,1.0);
#507=CARTESIAN_POINT('',(2.25,-1.18109441066253,-25.0));
#508=AXIS2_PLACEMENT_3D('',#584,#585,#586);
#509=CARTESIAN_POINT('',(2.25,-1.18109441066253,25.0));
#510=VECTOR('',#587,1.0);
#511=CARTESIAN_POINT('',(2.25,1.18109441066252,-25.0));
#512=CARTESIAN_POINT('',(2.25,1.18109441066252,-25.0));
#513=VECTOR('',#588,1.0);
#514=CARTESIAN_POINT('',(2.25,1.18109441066252,25.0));
#515=VECTOR('',#589,1.0);
#516=CARTESIAN_POINT('',(3.75,2.04711981444695,-25.0));
#517=AXIS2_PLACEMENT_3D('',#590,#591,#592);
#518=CARTESIAN_POINT('',(3.75,2.04711981444695,25.0));
#519=VECTOR('',#593,1.0);
#520=CARTESIAN_POINT('',(4.46385967464597,1.63497273912648,-25.0));
#521=CARTESIAN_POINT('',(4.46385967464597,1.63497273912648,-25.0));
#522=VECTOR('',#594,1.0);
#523=CARTESIAN_POINT('',(4.46385967464597,1.63497273912648,25.0));
#524=VECTOR('',#595,1.0);
#525=CARTESIAN_POINT('',(5.82271365864359,3.01321863661593,-25.0));
#526=AXIS2_PLACEMENT_3D('',#596,#597,#598);
#527=CARTESIAN_POINT('',(5.82271365864359,3.01321863661593,25.0));
#528=VECTOR('',#599,1.0);
#529=CARTESIAN_POINT('',(-0.391146016002392,13.4321655611513,-25.0));
#530=CARTESIAN_POINT('',(-0.391146016002392,13.4321655611513,-25.0));
#531=VECTOR('',#600,1.0);
#532=CARTESIAN_POINT('',(-0.391146016002392,13.4321655611513,25.0));
#533=VECTOR('',#601,1.0);
#534=CARTESIAN_POINT('',(-2.25,12.9199450674462,-25.0));
#535=AXIS2_PLACEMENT_3D('',#602,#603,#604);
#536=CARTESIAN_POINT('',(-2.25,12.9199450674462,25.0));
#537=VECTOR('',#605,1.0);
#538=CARTESIAN_POINT('',(-2.25,-3.14600547472985,-25.0));
#539=VECTOR('',#606,1.0);
#540=DIRECTION('',(1.0,-3.46944695195355E-15,0.0));
#541=DIRECTION('',(0.0,0.0,-1.0));
#542=DIRECTION('',(1.0,-3.46944695195355E-15,0.0));
#543=DIRECTION('',(0.0,0.0,-1.0));
#544=CARTESIAN_POINT('',(2.25000000000005,-3.14600547472991,25.0));
#545=DIRECTION('',(0.0,0.0,1.0));
#546=DIRECTION('',(-1.0,0.0,0.0));
#547=DIRECTION('',(0.0,1.0,0.0));
#548=CARTESIAN_POINT('',(2.94999999999994,-2.44600547472989,25.0));
#549=DIRECTION('',(0.0,0.0,1.0));
#550=DIRECTION('',(-1.0,0.0,0.0));
#551=CARTESIAN_POINT('',(3.24999999999992,-1.18109441066255,25.0));
#552=DIRECTION('',(0.0,0.0,-1.0));
#553=DIRECTION('',(-1.0,0.0,0.0));
#554=DIRECTION('',(0.0,1.0,0.0));
#555=CARTESIAN_POINT('',(3.25,1.18109441066253,25.0));
#556=DIRECTION('',(0.0,0.0,-1.0));
#557=DIRECTION('',(-1.0,0.0,0.0));
#558=DIRECTION('',(0.866025403784439,-0.499999999999999,0.0));
#559=CARTESIAN_POINT('',(4.96385967464597,2.50099814291091,25.0));
#560=DIRECTION('',(0.0,0.0,1.0));
#561=DIRECTION('',(-1.0,0.0,0.0));
#562=DIRECTION('',(-0.512220493705018,0.858853983997622,0.0));
#563=CARTESIAN_POINT('',(-1.25,12.9199450674462,25.0));
#564=DIRECTION('',(0.0,0.0,1.0));
#565=DIRECTION('',(-1.0,0.0,0.0));
#566=DIRECTION('',(0.0,-1.0,0.0));
#567=CARTESIAN_POINT('',(-1.25000000000004,-3.14600547472986,25.0));
#568=DIRECTION('',(0.0,0.0,1.0));
#569=DIRECTION('',(-1.0,0.0,0.0));
#570=CARTESIAN_POINT('',(-1.25000000000004,-3.14600547472986,-25.0));
#571=DIRECTION('',(0.0,0.0,1.0));
#572=DIRECTION('',(-1.0,0.0,0.0));
#573=DIRECTION('',(0.0,0.0,-1.0));
#574=CARTESIAN_POINT('',(2.25000000000005,-3.14600547472991,-25.0));
#575=DIRECTION('',(0.0,0.0,1.0));
#576=DIRECTION('',(-1.0,0.0,0.0));
#577=DIRECTION('',(0.0,0.0,-1.0));
#578=DIRECTION('',(0.0,1.0,0.0));
#579=DIRECTION('',(0.0,0.0,-1.0));
#580=CARTESIAN_POINT('',(2.94999999999994,-2.44600547472989,-25.0));
#581=DIRECTION('',(0.0,0.0,1.0));
#582=DIRECTION('',(-1.0,0.0,0.0));
#583=DIRECTION('',(0.0,0.0,-1.0));
#584=CARTESIAN_POINT('',(3.24999999999992,-1.18109441066255,-25.0));
#585=DIRECTION('',(0.0,0.0,-1.0));
#586=DIRECTION('',(-1.0,0.0,0.0));
#587=DIRECTION('',(0.0,0.0,-1.0));
#588=DIRECTION('',(0.0,1.0,0.0));
#589=DIRECTION('',(0.0,0.0,-1.0));
#590=CARTESIAN_POINT('',(3.25,1.18109441066253,-25.0));
#591=DIRECTION('',(0.0,0.0,-1.0));
#592=DIRECTION('',(-1.0,0.0,0.0));
#593=DIRECTION('',(0.0,0.0,-1.0));
#594=DIRECTION('',(0.866025403784439,-0.499999999999999,0.0));
#595=DIRECTION('',(0.0,0.0,-1.0));
#596=CARTESIAN_POINT('',(4.96385967464597,2.50099814291091,-25.0));
#597=DIRECTION('',(0.0,0.0,1.0));
#598=DIRECTION('',(-1.0,0.0,0.0));
#599=DIRECTION('',(0.0,0.0,-1.0));
#600=DIRECTION('',(-0.512220493705018,0.858853983997622,0.0));
#601=DIRECTION('',(0.0,0.0,-1.0));
#602=CARTESIAN_POINT('',(-1.25,12.9199450674462,-25.0));
#603=DIRECTION('',(0.0,0.0,1.0));
#604=DIRECTION('',(-1.0,0.0,0.0));
#605=DIRECTION('',(0.0,0.0,-1.0));
#606=DIRECTION('',(0.0,-1.0,0.0));
ENDSEC;
END-ISO-10303-21;
